Oops, an error
Loading. Please wait.

More For Your Money chords

version 2
version 2

Whole song

52 views 1 this week
no commentswrite comment
1 2 3 4 5
3 more votes to show rating
add to favorites
×
Save as Personal and add changes to this tab that will be seen only by you. Learn more ›
×
You can save this tab as Personal to edit and correct it or add notes. All changes will be seen only by you. Learn more »
launch autoscroll
font size
0
reset
transpose
0
reset
simplify chords
display chords
guitar tuner
edit
Autoscroll
slow
fast
+/-
esc
set tempo
stop
Author
Difficulty
About this tab version
Chords with tabbed guitar fills. Was this info helpful? Yes No
Strumming
There is no strumming pattern for this song yet. and get +5 IQ
[Intro]
E|-------------------------|
A|----------------------3--|
D|--12--10--8--7--5--3-----|
G|-------------------------|
B|--12--10--8--6--5--3--1--|
E|-------------------------|


[Verse 1]
      C             C7               
When I was a kid, candy was a nickel

E|-----------------------------|
A|-----------------------------|
D|---10---------10---7---5-----|
G|----------10-----------------|
B|------10---------------------|
E|--------------8----5---3-----|

        C                 C7           
I had roller skates and a red bicycle

E|-----------------3---------|
A|---------------------------|
D|---7---------5-------------|
G|----------7----------------|
B|------7--------------------|
E|---5-------------3---------|

             C                   C7
It was the land of the brave and home of the free
      F                       F7
Then all the good jobs went across the sea
         C            D7          G                    C
It's a high price to pay, to get more for your money today.


[Verse 2]
C                     C7
Way back then, daddy had his own business

E|-----------------------------|
A|-----------------------------|
D|---10---------10---7---5-----|
G|----------10-----------------|
B|------10---------------------|
E|--------------8----5---3-----|

C                             C7
He was a self made man he was independent

E|-----------------3---------|
A|---------------------------|
D|---7---------5-------------|
G|----------7----------------|
B|------7--------------------|
E|---5-------------3---------|

 C                                   C7
Then they opened a store, it took a whole city block
      F                F7
Anything you need you know they've got
         C            D7          G                    C
It's a high price to pay, to get more for your money today.


[Bridge]
         F
When I needed a part for my washing machine
       C
They picked up my call in the Phillipines
          D7
 I got a Chinese phone and a Japanese car
         G
But my gasoline takes me twice as far


[Solo]
C   C7   F    C
C   C7   D    G
C   C7   F    C
F   C    F    G    A   B   C


[Verse 3]
C                       C7
Bernie Madoff with the rich folks money

E|-----------------------------|
A|-----------------------------|
D|---10---------10---7---5-----|
G|----------10-----------------|
B|------10---------------------|
E|--------------8----5---3-----|

 C                         C7
They didn't think it was very funny

E|-----------------3---------|
A|---------------------------|
D|---7---------5-------------|
G|----------7----------------|
B|------7--------------------|
E|---5-------------3---------|

           C                   C7
Now the dollar is up but the chips are down
       F                    F7
There ain't very many good jobs around
         C            D7          G                    C
It's a high price to pay, to get more for your money today.


[Verse 4]
  C                   C7
Last night I had a terrible dream

E|-----------------------------|
A|-----------------------------|
D|---10---------10---7---5-----|
G|----------10-----------------|
B|------10---------------------|
E|--------------8----5---3-----|

       C                                C7                         
I was eatin' me some cookies and some chocolate ice cream

E|-----------------3---------|
A|---------------------------|
D|---7---------5-------------|
G|----------7----------------|
B|------7--------------------|
E|---5-------------3---------|

      C                        C7
The government didn't want to pay the debt
          F                     F7
And the whole damn country got repossessed
         C            D7          G                    C
It's a high price to pay, to get more for your money today.
         C            D7          G                    C  F  C
It's a high price to pay, to get more for your money toda-a-ay.


[Outro]
E|-------------------------5---|
A|-----------------------------|
D|---10--10--10--7--5--2-------|
G|-----------------------------|
B|-------------------------1---|
E|---8---8---8---5--3--0-------|

            
            
Suggest correction
Creating personal tab
Creating personal tab
You can edit any tab online and save it as your Personal.

You can edit, replace or remove any tab part or add personal notes – all changes will be seen only by you.

Personal tabs can be accessed anytime from any device, even offline.
Learn more »
Give kudos to tab author, rate the tab!
1 2 3 4 5
comments
print report bad tab
guest
You may want to rate the tab now too:
select rating
Wanna post a correction for this tab? Suggest correction