Oops, an error
Loading. Please wait.

Die Young Tab

version 1
version 1

Intro

Solo

Whole song

5,557 views 6 this week
1 commentread comment
1 2 3 4 5
accurate
x 2
add to favorites
launch autoscroll
font size
0
reset
how to read this tab
guitar tuner
Tab Pro tools
  • play this tab
  • loop segment
  • change instrument
  • show fretboard
  • metronome
×
Best way to learn
"Die Young"
Autoscroll
slow
fast
+/-
esc
set tempo
stop
Difficulty
novice
First tab so be nice.

Kesha - Die Young Guitar Chords

Cm, BbMaj, EbMaj, AbMaj

Here is the solo riff too:
------------3h4p3------------|
-4--4-3-----------------3----|      And repeat.....
---------3----------5--------|
-----------------------------|
-----------------------------|
-----------------------------|

Catchy song.  Enjoy.
comments
We did not receive enough feedback on this tab! Please rate:
print report bad tab
1 2 3 4 5
1 comment total.
+1 reply
gavindavis wrote on April 1 2013, 05:47 pm

Close but actually wrong.
Here is the solo riff too:
------------4h5p4------------|
-5--5-4-----------------4----| And repeat.....
---------4----------6--------|
-----------------------------|
-----------------------------|
-----------------------------|

I want to post or [tab]
guest
You may want to rate the tab now too:
select rating
Please do not post tabs as comments. Select "correction" instead!