Oops, an error
Loading. Please wait.

Party At A Rich Dudes House Tab

version 2
version 2

Whole song

3,137 views 1 this week
no commentswrite comment
1 2 3 4 5
excellent!
x 3
add to favorites
launch autoscroll
font size
0
reset
how to read this tab
guitar tuner
Tab Pro tools
  • play this tab
  • loop segment
  • change instrument
  • show fretboard
  • metronome
×
Best way to learn
"Party At A Rich Dudes House"
Autoscroll
slow
fast
+/-
esc
set tempo
stop
Contributor
Difficulty
novice
-----------------------------------------------------------------
PARTY AT A RICH DUDE'S HOUSE - Ke$ha
-----------------------------------------------------------------
Tabbed by:Frank Truei
Email: Brokensword421@hotmail.com

Tuning:EADGBe (Standard)

INTRO/VERSE (0:00-0:35)
e|----------------------------|
B|----------------------------|
G|5-5-5-5---------8-8-8-8--7--|
D|3-3-3-3-6--6-8--6-6-6-6--5--| x9
A|--------4--4-6--------------|
E|----------------------------|

e|----------------------------|
B|----------------------------|
G|5-5-5-5---------------------|
D|3-3-3-3-6--6-8--------------|
A|--------4--4-6--------------|
E|----------------------------|

CHORUS (0:35-0:58)
The way I see it, there are 2 ways of playing this.  Either you can pick at the octave 
to simulate the bass, or you can just strum the whole chord

Method 1:
e|---------------------------------------------------------------|
B|----------------------------------9---9---9---9----------------|
G|--5---5---5---5---6---6---6---6-------------------8---8---8---8|
D|--------------------------------6---6---6---6------------------|  x3
A|3---3---3---3---4---4---4---4-------------------6---6---6---6--|
E|---------------------------------------------------------------|

e|---------------------------------|
B|---------------------------------|
G|--5---5---5---5---6---6---6---6--|
D|---------------------------------|
A|3---3---3---3---4---4---4---4----|
E|---------------------------------|

Method 2:  Let them ring!
e|---------------------------------------------------------------|
B|---------------------------------------------------------------|
G|5---------------6---------------13--------------8--------------|
D|5---------------6---------------13--------------8--------------|
A|3---------------4---------------11--------------6--------------|
E|---------------------------------------------------------------|

e|--------------------------------|
B|--------------------------------|
G|5---------------6---------------|
D|5---------------6---------------|
A|3---------------4---------------|
E|--------------------------------|

VERSE 2 (0:58-1:24)
e|----------------------------|
B|----------------------------|
G|5-5-5-5---------8-8-8-8--7--|
D|3-3-3-3-6--6-8--6-6-6-6--5--| x7
A|--------4--4-6--------------|
E|----------------------------|

e|----------------------------|
B|----------------------------|
G|5-5-5-5---------------------|
D|3-3-3-3-6--6-8--------------|
A|--------4--4-6--------------|
E|----------------------------|

CHORUS 2 (1:24-1:48)
*Same as Chorus 1

SLOWER PART *and cleaner (1:48- 2:14)
        Wake up in the...       We Don't care...
e|----------------------------------------------------|
B|----------------------------------------------------|
G|-------------------------8--------------------------|
D|8------------------------8--------------------------| x3
A|8------------------------6--------------------------|
E|6---------------------------------------------------|
 ...and we're broke...       ...sun is    ...oh my god i think...
e|----------------------------------------------------|
B|----------------------------------------------------|
G|6------------------------5-------------8------------|
D|6------------------------5-------------8------------|
A|4------------------------3-------------6------------|
E|----------------------------------------------------|

BRIDGE INTO CHORUS (2:15-2:20)
(optional.  Its bass synth anyway.)

e|---------------------------|
B|---------------------------|
G|---------------------------|
D|3-3-3-3---------6-6-6-6-5--| x2
A|--------4--4-6-------------|
E|---------------------------|

FINAL CHORUS (2:20-2:56)
Method 1:
e|---------------------------------------------------------------|
B|----------------------------------9---9---9---9----------------|
G|--5---5---5---5---6---6---6---6-------------------8---8---8---8|
D|--------------------------------6---6---6---6------------------|
A|3---3---3---3---4---4---4---4-------------------6---6---6---6--|
E|---------------------------------------------------------------|

3 SECOND SILENCE
e|---------------------------------|
B|--9---9---9---9------------------|
G|------------------8---8---8---8--|
D|5---5---5---5--------------------|
A|----------------6---6---6---6----|
E|---------------------------------|

e|---------------------------------------------------------------|
B|----------------------------------9---9---9---9----------------|
G|--5---5---5---5---6---6---6---6-------------------8---8---8---8| x2
D|--------------------------------6---6---6---6------------------|
A|3---3---3---3---4---4---4---4-------------------6---6---6---6--|
E|---------------------------------------------------------------|

e|--------------------------------------------------------|
B|--------------------------------------------------------|
G|--5---5---5---5---6---6---6---6--10---------------------|
D|--------------------------------------------------------|
A|3---3---3---3---4---4---4---4----8----------------------|
E|--------------------------------------------------------|

Method 2:  Let them ring!
e|---------------------------------------------------------------|
B|---------------------------------------------------------------|
G|5---------------6---------------13--------------8--------------|
D|5---------------6---------------13--------------8--------------|
A|3---------------4---------------11--------------6--------------|
E|---------------------------------------------------------------|

3 SECOND SILENCE

e|--------------------------------|
B|--------------------------------|
G|13--------------8---------------|
D|13--------------8---------------|
A|11--------------6---------------|
E|--------------------------------|

e|---------------------------------------------------------------|
B|---------------------------------------------------------------|
G|5---------------6---------------13--------------8--------------|
D|5---------------6---------------13--------------8--------------| x2
A|3---------------4---------------11--------------6--------------|
E|---------------------------------------------------------------|


e|--------------------------------------------------------|
B|--------------------------------------------------------|
G|5---------------6---------------8-----------------------|
D|5---------------6---------------8-----------------------|
A|3---------------4---------------6-----------------------|
E|--------------------------------------------------------|
comments
We did not receive enough feedback on this tab! Please rate:
print report bad tab
1 2 3 4 5
I want to post or [tab]
guest
You may want to rate the tab now too:
select rating
Please do not post tabs as comments. Select "correction" instead!