Oops, an error
Loading. Please wait.

Tik Tok Tab

version 1
version 1

Interactive

66,261 views 3 this week
1 commentread comment
1 2 3 4 5
not so good
x 6
add to favorites
launch autoscroll
font size
0
reset
how to read this tab
guitar tuner
Tab Pro tools
  • play this tab
  • loop segment
  • change instrument
  • show fretboard
  • metronome
×
Best way to learn
"Tik Tok"
Autoscroll
slow
fast
+/-
esc
set tempo
stop
Contributor
Difficulty
novice
E-------------------|
B-------------------|
G-------------------|
D-0-0-0-0-2-2-3-3-3-|
A-------------------|
E-------------------|

E------------------|
B------------------|
G--2---------------|
D-0-0-2-2-2-3-3----|
A------------------|
E------------------|

Chorus:

E-1--3--5----3--5--3--|
B-3--5--6----3--6--5--|
G-3--5--7----3--7--5--|
D-3--5--7-X3-3--7--5--|
A-1--3--5----5--5--3--|
E------------3--------|X2
comments
print report bad tab
1 comment total.
+1 reply
Captain Planet wrote on April 8 2010, 12:45 pm

I haven't seen the intro tabbed correctly so far and I can't be bothered to post a whole new tab, but this is the correct intro.

It's root + 3rd, play the low E with your index, using it to also mute the A and D strings, then play the G with your middle finger.

Bb C Dm
e-----------------------------|
b-----------------------------|
g--7--7--7---7-9--9--10-------|
d--x--x--x---x-x--x--x--------|
a--x--x--x---x-x--x--x--------|
e--6--6--6---6-8--8--10-------|

then play your Gm Dm C after a few repetitions of that.

Cpt. Planet

I want to post or [tab]
guest
You may want to rate the tab now too:
select rating
Please do not post tabs as comments. Select "correction" instead!