Oops, an error
Loading. Please wait.

Tik Tok Bass Tab

version 2
version 2

Whole song

Interactive

4,439 views 1 this week
no commentswrite comment
1 2 3 4 5
please rate
add to favorites
launch autoscroll
font size
0
reset
guitar tuner
Tab Pro tools
  • play this tab
  • loop segment
  • change instrument
  • show fretboard
  • metronome
×
Best way to learn
"Tik Tok"
Autoscroll
slow
fast
+/-
esc
set tempo
stop
Difficulty
intermediate
Ke$ha
Tik Tok
Tabbed by Salazard

This is a bass representation of the low synth. It's not exact but it's pretty much as 
as you can go on a normal bass.

Listen to track for timing. Play as smoothly as you can through the Chorus.


Second part of the verses

G|-----------------|
D|-----------------|
A|-1---1---1/3-3-5-|
E|-----------------|

Chorus

G|-----------------------|
D|---3---------5---7-9/19|
A|-1---1---1/3---5-------|
E|-----------------------|

G|-----------------------|
D|---3---------5---7-?/?-|
A|-1---1---1/3---5-------|
E|-----------------------|

G|-----------------------|
D|---3---------5---7-9/19|
A|-1---1---1/3---5-------|
E|-----------------------|

G|-----------------------|
D|--------------7---5----|
A|-----5----3/5---3---3--|
E|-3-1--3----------------|


Pretty much this repeated throughout.
comments
We did not receive enough feedback on this tab! Please rate:
print report bad tab
1 2 3 4 5
I want to post or [tab]
guest
You may want to rate the tab now too:
select rating
Please do not post tabs as comments. Select "correction" instead!