Oops, an error
Loading. Please wait.

Piece Of Mind tab

by Kehlani
352 views 3 this week
no commentswrite comment
1 2 3 4 5
2 more votes to show rating
add to favorites
×
Save as Personal and add changes to this tab that will be seen only by you. Learn more ›
×
You can save this tab as Personal to edit and correct it or add notes. All changes will be seen only by you. Learn more »
launch autoscroll
font size
0
reset
how to read this tab
guitar tuner
edit
Autoscroll
slow
fast
+/-
esc
set tempo
stop
Repeat chords for all verses and chorus.

e|------x------x--x------x------x-------------|
B|------5------3--3------1------x-------------|
G|------5------3--3------2------1-------------|
D|------5------3--2------2------2-------------|
A|------x------x--3------x------2-------------|
E|------5------3--x------1------x-------------|

[Verse]
          Tryna forget all of the       messages 
e|---------x----------------------------x----------|
B|---------5----------------------------3----------|
G|---------5----------------------------3----------|
D|---------5----------------------------3----------|
A|-------------------------------------------------|
E|---------5----------------------------3----------|

          Tryna       forget all of the stressin'   'Cause damn it was
e|---------x-------------x----------------------------x----------|
B|---------3-------------1----------------------------x----------|
G|---------3-------------2----------------------------1----------|
D|---------2-------------2----------------------------2----------|
A|---------3-------------x----------------------------2----------|
E|---------x-------------1----------------------------x----------|
          
           Tryna forget all of the      secondary   
e|---------x----------------------------x-----x----|
B|---------5----------------------------3-----3----|
G|---------5----------------------------3-----3----|
D|---------5----------------------------3-----2----|
A|--------------------------------------------3----|
E|---------5----------------------------3-----x----|

          Feelings I had, man, it was fuckin' scary
e|--------x---------------------------x----------|
B|--------1---------------------------x----------|
G|--------2---------------------------1----------|
D|--------2---------------------------2----------|
A|--------x---------------------------2----------|
E|--------1---------------------------x----------|

(Repeat for rest of verse)

Tryna get back to all my old ways
Tryna get back to all the hobbies from my old days
(Gettin' back)
Tryna forget all the unnecessary
Thoughts from my head, man, it was pretty scary

[Prechorus]
     At least I learned a thing or two (yeah)
e|---------x-----------------------x----------|
B|---------5-----------------------3----------|
G|---------5-----------------------3----------|
D|---------5-----------------------3----------|
A|--------------------------------------------|
E|---------5-----------------------3----------|

          About me and       you (yeah)
e|--------------x-------------x--|
B|--------------3-------------1--|
G|--------------3-------------2--|
D|--------------2-------------2--|
A|--------------3-------------x--|
E|--------------x-------------1--|
    
What we went through (yeah)
e|---------------x----------|
B|---------------x----------|
G|---------------1----------|
D|---------------2----------|
A|---------------2----------|
E|---------------x----------|

 But it made me who I am, I am,      I am
e|--------------------x----------------x----------|
B|--------------------5----------------3----------|
G|--------------------5----------------3----------|
D|--------------------5----------------3----------|
A|------------------------------------------------|
E|--------------------5----------------3----------|

  I can        feel       again
e|--------------x-----------x--|
B|--------------3-----------1--|
G|--------------3-----------2--|
D|--------------2-----------2--|
A|--------------3-----------x--|
E|--------------x-----------1--|
    
Won't be numb again (numb)
e|---------------x----------|
B|---------------x----------|
G|---------------1----------|
D|---------------2----------|
A|---------------2----------|
E|---------------x----------|

(Repeat for rest of prechorus)

At least I didn't mess it up (yeah)
That was all your touch (yeah)
I don't miss it much (yeah)
But it made me who I am, I am, I am
I can feel again
Won't be dumb again (dumb)

[Chorus]
Said I'm tryna break off       a piece     of      mind
e|-------------------x---------x-----------x-------x----x---|
B|-------------------5---------3-----------3-------1----x---|
G|-------------------5---------3-----------3-------2----1---|
D|-------------------5---------3-----------2-------2----2---|
A|-----------------------------------------3-------x----2---|
E|-------------------5---------3-----------x-------1----x---|

          A piece of mind that I can't    get     right
e|-------------------x---------x-----------x-------x----x---|
B|-------------------5---------3-----------3-------1----x---|
G|-------------------5---------3-----------3-------2----1---|
D|-------------------5---------3-----------2-------2----2---|
A|-----------------------------------------3-------x----2---|
E|-------------------5---------3-----------x-------1----x---|
    
Said I'm tryna break off       a piece     of      mind
e|-------------------x---------x-----------x-------x----x---|
B|-------------------5---------3-----------3-------1----x---|
G|-------------------5---------3-----------3-------2----1---|
D|-------------------5---------3-----------2-------2----2---|
A|-----------------------------------------3-------x----2---|
E|-------------------5---------3-----------x-------1----x---|

         A piece of mind my   heart's on   my     side  
e|-------------------x---------x-----------x-------x----x---|
B|-------------------5---------3-----------3-------1----x---|
G|-------------------5---------3-----------3-------2----1---|
D|-------------------5---------3-----------2-------2----2---|
A|-----------------------------------------3-------x----2---|
E|-------------------5---------3-----------x-------1----x---|

[Repeat chords for Verse 2]
You said yourself you made me who I am
You told me that after you I would never love again (Didn't I?)
Oh you made sure that I would lose myself
So I wanna see I need no one else
Just tell me that I was worth a million smiles, and...
Tell me that I was worth a million miles, and...
Tryna make sure that I forget the times that
You made me think that I just couldn't shine, yeah

(Prechorus)

(Chorus)

On my side, yeah
On my side, yeah
Gotta get a little piece of mind
Gotta make sure that it feels just right
Gotta make sure that I make it alive this time

(Chorus) x2

            
            
Suggest correction
Creating personal tab
Creating personal tab
You can edit any tab online and save it as your Personal.

You can edit, replace or remove any tab part or add personal notes – all changes will be seen only by you.

Personal tabs can be accessed anytime from any device, even offline.
Learn more »
Give kudos to tab author, rate the tab!
1 2 3 4 5
comments
print report bad tab
guest
You may want to rate the tab now too:
select rating
Wanna post a correction for this tab? Suggest correction