Oops, an error
Loading. Please wait.

Pillars Of Creation Tab

version 1
version 1

Intro

  • Here is tab version of the intro.

Interactive

181 views 3 this week
no commentswrite comment
1 2 3 4 5
3 more votes to show rating
add to favorites
launch autoscroll
font size
0
reset
how to read this tab
guitar tuner
Autoscroll
slow
fast
+/-
esc
set tempo
stop
Help us to improve Ultimate-Guitar.com Take our survey!
×
Author
Difficulty
Tuning
intermediate
A# F A# D# G C
About this tab version
Here is tab version of the intro. Was this info helpful? Yes No
Keith Merrow - Pillars Of Creation

Originally played in drop A# with 7-string guitar


[Intro]

C |---------------------------------------------------------------------------|
G |---------------------------------------------------------------------------|
D#|---------------------------------------------------------------------------|
A#|----------15--------------------15--------------14------------------12-----|
F |-12--------------------12--------------10--------------------8-------------|
A#|----15-12----0-x-0-0------15-12----0-x----14-10----0-x-0-0-----12-8--------|
       .  .       . .        .  .     . .    .  .       . .       .  .


C |---------------------------------------------------------------------------|
G |---------------------------------------------------------------------------|
D#|---------------------------------------------------------------------------|
A#|--------11---------------------15------------------10-------5--------------|
F |-7-------------------/12---------------------------------------------------|
A#|---11-7----0-x-0-0-------15-12----0-x-0-12-\-7-8--------3-------2~---------|
      .  .      . .         .  .       . . 


C |---------------------------------------------------------------------------|
G |---------------------------------------------------------------------------|
D#|---------------------------------------------------------------------------|
A#|----------15--------------------15--------------14------------------12-----|
F |-12--------------------12--------------10--------------------8-------------|
A#|----15-12----0-x-0-0------15-12----0-x----14-10----0-x-0-0-----12-8--------|
       .  .       . .        .  .     . .    .  .       . .       .  .


C |---------------------------------------------------------------------------|
G |---------------------------------------------------------------------------|
D#|---------------------------------------------------------------------------|
A#|--------11---------------------15------------------10-------5--------------|
F |-7-------------------/12---------------------------------------------------|
A#|---11-7----0-x-0-0-------15-12----0-x-0-12-\-7-8--------3-------2-3-2-2----|
      .  .      . .         .  .       . .                         . . . .


C |-------------|
G |-------------|
D#|-------------|
A#|-7-x-3-x-6---|
F |-5-x-1-x-4---|
A#|-------------|
    .   .


************************************

| x   Dead note
| .   Palm mute
| ~   Vibrato
| /   Slide up
| \   Slide down

************************************
Suggest correction
Give kudos to tab author, rate the tab!
1 2 3 4 5
comments
print report bad tab
guest
You may want to rate the tab now too:
select rating
Wanna post a correction for this tab? Suggest correction