Oops, an error
Loading. Please wait.

Only Found Out Yesterday tab

10,750 views 21 this week
3 commentsread comments
1 2 3 4 5
x 10
add to favorites
×
Save as Personal and add changes to this tab that will be seen only by you. Learn more ›
×
You can save this tab as Personal to edit and correct it or add notes. All changes will be seen only by you. Learn more »
launch autoscroll
font size
0
reset
how to read this tab
guitar tuner
edit
Autoscroll
slow
fast
+/-
esc
set tempo
stop
-------------------------------------------------------------------------------
            Only found out Yesterday – Keith Richards                             
-------------------------------------------------------------------------------
Tabbed by: TheRockChanal1
E-mail: keith-miller@web.de     

This is the version ithat should fit to:
YouTube: /watch?v=0t8YMHjjPkk

And that's my version of the song:
http://www.youtube.com/watch?v=Fc9wP8aaorg

Tuning: eBGDAE (standard)

opening chord
e|-------|                                                                    
B|---3---|
G|---2---|
D|---0---|
A|---0---|
E|-------|


e|---0-2-3--2-0-|-------------|-0-2-3-3/5-3p2-|----0-----0-2-0-3-2-3/5-3-5/7-|
B|-3------------|-3-3-2-2-2-2-|---------------|---2--3--3--------------------|
G|--------------|-2-2-2-2-2-2-|---------------|--0---2-----------------------|
D|--------------|-------------|---------------|------------------------------|
A|--------------|-0-0-0-0-0-0-|---------------|-0----------------------------|
E|--------------|-------------|---------------|------222~~-------------------|

e|-5-7/8~-5-5~/7-7—-7/5-5/3-2p0----------0-2-3-2p0---------------------------|
B|------------------------------3-2-2--3-----------3/2-------3------3--2--0-3|
G|--------0-0~~0-0--0---0---0---2-2-2--------------2~------2-------4---2--0-2|
D|-------------------------------------------------------0-------2----------0|
A|------------------------------0-0-0--------------0---0---------------0-----|
E|-------------------------------------------------------------4----------3--|

e|---0-2-3-2-0-|-------------|-0-2-3/5-3p2-|-----0-------0-2-0-3-2-3/5-3-5/7-|
B|-3-----------|-3-3-2-2-2-2-|-------------|----2--3----3--------------------|
G|-------------|-2-2-2-2-2-2-|-------------|---0---2-------------------------|
D|-------------|-------------|-------------|---------------------------------|
A|-------------|-0-0-0-0-0-0-|-------------|-0-------------------------------|
E|-------------|-------------|-------------|-------22222---------------------|

e|-5-7/8-5-5~/7-7—-7/5-5/3-2p0---------0-2-3-2-0-----------------------------|  
B|-----------------------------3-2-2-------------3-2-------3------3--------3-|
G|-------0-0~~0-0--0---0---0---2-2-2-------------2-2-----2-------4-------2---|
D|-----------------------------------------------------0-------2-------0-----|
A|-----------------------------0-0-0-------------0-0----------2------0-------|
E|---------------------------------------------------2-------4---------------|

e|---------------------------------------------------------------------------|
B|-------0-------3-----------------------------------------------------------|
G|-----0--------2------------------------------------------------------------|
D|---0---------0-------------------------------------------------------------|
A|------------0--------------------------------------------------------------|
E|-3---------2---------------------------------------------------------------|

************************************

| /   slide up
| \   slide down
| h   hammer-on
| p   pull-off
| ~   hold note
| +   harmonic
| x   Mute note
| b   Bend
| pb  Pre-bend
| br  Bend release
| pbr Pre-bend release
| brb Bend release bend

************************************
Suggest correction
Creating personal tab
Creating personal tab
You can edit any tab online and save it as your Personal.

You can edit, replace or remove any tab part or add personal notes – all changes will be seen only by you.

Personal tabs can be accessed anytime from any device, even offline.
Learn more »
comments
print report bad tab
3 comments total.
0 reply
tordk2007 10 Jul 03, 2013 05:36 PM

very good tab! i learnt the song before there were any GOOD tabs to it, and it is pretty much identical! Great job!

0 reply
cmcmahon30 10 Dec 09, 2013 06:37 PM, edited at 11:38 pm

Hey man, just found this fooling around on my guitar but try just playing it on the the b string. it goes third fret - 5th fret - 7th - 8th - 7th - 5th. Give er a try it sounds identical. andd u can get better pulls on the chords as well as D string 7th fret giving you the same note as G string 2nd fret to just throw in throughout to add to it. Too go all the way up its 8th - 10th - 12th - 13th on b string.

guest
You may want to rate the tab now too:
select rating
Wanna post a correction for this tab? Suggest correction