Oops, an error
Loading. Please wait.

Even Stars Fall For You chords

version 3
version 3

Whole song

134 views 3 this week
no commentswrite comment
1 2 3 4 5
2 more votes to show rating
add to favorites
×
Save as Personal and add changes to this tab that will be seen only by you. Learn more ›
×
You can save this tab as Personal to edit and correct it or add notes. All changes will be seen only by you. Learn more »
launch autoscroll
font size
0
reset
transpose
0
reset
display chords
guitar tuner
edit
Autoscroll
slow
fast
+/-
esc
set tempo
stop
Strumming
There is no strumming pattern for this song yet. and get +5 IQ
EVEN THE STARS FALL FOR YOU

e|---------------------------------------------------------------------|
B|---------------------------------------------------------------------|
G|---------------------------------------------------------------------|
D|---------------------------------------------------------------------|
A|--5-5-5-5-5-5-5/7/0--0-0-0-0-0-0-0---7-7-7-7-7-7-7/9-----------------|
E|------------------------------------------------------3-3-3-3-3-3-3--|

e|---------------------------------------------------------------------|
B|---------------------------------------------------------------------|
G|---------------------------------------------------------------------|
D|---------------------------------------------------------------------|
A|--5-5-5-5-5-5-5/7/0--0-0-0-0-0-0-0---7-7-7-7-7-7-7/9-----------------|
E|------------------------------------------------------3-3-3-3-3-3-3--|

  D                A                Em
I COULDN’T BRING MYSELF TO TAKE YOU HOME
             G                D
I’VE GOT YOU OUT HERE ALL ALONE
         A                Em             
AND EVEN THIS OLD DRUNKEN MIND
G                   
STILL RIGHT HERE TONIGHT

D          A                Em
YEAH THOSE FIREFLIES IN THE FIELDS
           G              D      
THEY GOTTA KNOW THE WAY I FEEL
        A            Em    
OUT THE CORNER OF MY EYE
        G
DID YOU SEE THAT

D                    A
EVERY STAR UP IN THE SKY
                          Em               
HAS GOT YOUR NAME ON IT TONIGHT
                                   G
AND THEY DON’T STAND A CHANCE LIKE I KNOW I DON’T
D                                         A
AND GIRL YOU CAN’T TELL ME THAT YOU CAN’T SEE
                             Em                             
THE KIND OF SPELL YOU PUT ON ME
                             G    
YOU GOTTA KNOW JUST WHAT YOU DO
                        
EVEN THE STARS FALL FOR YOU

e|----------------------------------------------------------------------|
B|----------------------------------------------------------------------|
G|----------------------------------------------------------------------|
D|----------------------------------------------------------------------|
A|--5-5-5-5-5-5-5/7/0--0-0-0-0-0-0-0---7-7-7-7-7-7-7/9------------------|
E|------------------------------------------------------3-3-3-3-3-3-3-3-|
WAH-OH OH OH, WAH OH OH OH,  WAH OH OH OH, WA OH OH O-O-OOH
                                                          
e|----------------------------------------------------------------------|
B|----------------------------------------------------------------------|
G|----------------------------------------------------------------------|
D|----------------------------------------------------------------------|
A|--5-5-5-5-5-5-5/7/0--0-0-0-0-0-0-0---7-7-7-7-7-7-7/9------------------|
E|------------------------------------------------------3-3-3-3-3-3-3-3-|
WAH-OH OH OH, WAH OH OH OH,  WAH OH OH OH, WA OH OH O-O-OOH

D         A                Em
SO MAKE A WISH AND MAKE IT FAST
       G                  D    
I JUST WANT THIS THING TO LAST
             A                  Em
CAUSE HEAVEN KNOWS IT’S FALLING HARD
    G
AND I’M NOT THE ONLY ONE

D                    A
EVERY STAR UP IN THE SKY
                          Em    
HAS GOT YOUR NAME ON IT TONIGHT
                                   G                                  
AND THEY DON’T STAND A CHANCE LIKE I KNOW I DON’T
    D                                     A
AND GIRL YOU CAN’T TELL ME THAT YOU CAN’T SEE

                             Em                         
THE KIND OF SPELL YOU PUT ON ME
                             G    
YOU GOTTA KNOW JUST WHAT YOU DO
                        Bm
EVEN THE STARS FALL FOR YOU YEAH, YEAH, YEAH

G       Bm              A
I NEVER COUNTED ON YOUR TOUCH
                      G    
MAKING ME WANT YOU SO MUCH
        Bm                    A
I NEVER DREAMED OF YOUR SWEET LIPS
                        Em   G  Bm  Em  G  Bm   Em   
COULD MAKE ME FEEL LIKE THIS

e|------------------------------------------------------------------------|
B|------------------------------------------------------------------------|
G|--7b-7b-7b-7b--9b----7b-------------------------------------------------|
D|------------------9-----9-7-9-------------------------------------------|
A|-------------------------------7-5-7-9-7-5------------------------------|
D|-------------------------------------------9-7-9------------------------|

e|------------------------------------------------------------------------|
B|-----3------------------------------------------------3/5---------------|
G|--2b---2b-2~---2b-x-x-x-x--x-x-x-x--x-2-x-2-x-2r-2~--------4b~~~--------|
D|------------------------------------------------------------------------|
A|------------------------------------------------------------------------|
D|------------------------------------------------------------------------|

e|--7-10-7------------------------------------------------------------------|
B|---------10---7-10-7------------------------------------------------------|
G|---------------------9---7-9-7--------------------------------------------|
D|-------------------------------9------------0------0------0------0--------|
A|------------------------------------0--0/5-----0/5----0/5----0/5----------|
D|--------------------------------------------------------------------2b-0--|

D                    A
EVERY STAR UP IN THE SKY
                          Em                        
HAS GOT YOUR NAME ON IT TONIGHT
                                   G    
AND THEY DON’T STAND A CHANCE LIKE I KNOW I DON’T
D                                         A
AND GIRL YOU CAN’T TELL ME THAT YOU CAN’T SEE
                             Em              
THE KIND OF SPELL YOU PUT ON ME
                             G    
YOU GOTTA KNOW JUST WHAT YOU DO
                        
EVEN THE STARS FALL FOR YOU

e|----------------------------------------------------------------------|
B|----------------------------------------------------------------------|
G|----------------------------------------------------------------------|
D|----------------------------------------------------------------------|
A|--5-5-5-5-5-5-5/7/0--0-0-0-0-0-0-0---7-7-7-7-7-7-7/9------------------|
E|------------------------------------------------------3-3-3-3-3-3-3-3-|
WAH-OH OH OH, WAH OH OH OH,  WAH OH OH OH, WA OH OH O-O-OOH
                             EVEN THE STAR FALL FOR YOU 
               
e|----------------------------------------------------------------------|
B|----------------------------------------------------------------------|
G|----------------------------------------------------------------------|
D|----------------------------------------------------------------------|
A|--5-5-5-5-5-5-5/7/0--0-0-0-0-0-0-0---7-7-7-7-7-7-7/9------------------|
E|------------------------------------------------------3-3-3-3-3-3-3-3-|        
WAH-OH OH OH, WAH OH OH OH,  WAH OH OH OH, WA OH OH O-O-OOH
                             EVEN THE STAR FALL FOR YOU

e|----------------------------------------------------------------------|
B|----------------------------------------------------------------------|
G|----------------------------------------------------------------------|
D|----------------------------------------------------------------------|
A|--5-5-5-5-5-5-5/7/0--0-0-0-0-0-0-0---7-7-7-7-7-7-7/9------------------|
E|------------------------------------------------------3-3-3-3-3-3-3-3-|        
WAH-OH OH OH, WAH OH OH OH,  WAH OH OH OH, WA OH OH O-O-OOH

e|----------------------------------------------------------------------|
B|----------------------------------------------------------------------|
G|----------------------------------------------------------------------|
D|----------------------------------------------------------------------|
A|--5-5-5-5-5-5-5/7/0--0-0-0-0-0-0-0---7-7-7-7-7-7-7/9------------------|
E|------------------------------------------------------3-3-3-3-3-3-3-3-|        
WAH-OH OH OH, WAH OH OH OH,  WAH OH OH OH, WA OH OH O-O-OOH

            
            
Suggest correction
Creating personal tab
Creating personal tab
You can edit any tab online and save it as your Personal.

You can edit, replace or remove any tab part or add personal notes – all changes will be seen only by you.

Personal tabs can be accessed anytime from any device, even offline.
Learn more »
Give kudos to tab author, rate the tab!
1 2 3 4 5
comments
print report bad tab
guest
You may want to rate the tab now too:
select rating
Wanna post a correction for this tab? Suggest correction