Oops, an error
Loading. Please wait.

For You tab

version 2
version 2

Whole song

181 views 1 this week
no commentswrite comment
1 2 3 4 5
1 last vote to show rating
add to favorites
×
Save as Personal and add changes to this tab that will be seen only by you. Learn more ›
×
You can save this tab as Personal to edit and correct it or add notes. All changes will be seen only by you. Learn more »
launch autoscroll
font size
0
reset
how to read this tab
guitar tuner
edit
Autoscroll
slow
fast
+/-
esc
set tempo
stop
Author
Difficulty
[Intro]

E|-----------------------0-------------------------0---|
B|-----------0---0-----0---------------0---0-----0-----|
G|--11\9-7-----------7-----7--11\9-7-----------7-----7-|x4
D|---------9---9---9-----------------9---9---9---------|
A|-----------------------------------------------------|
E|-----------------------------------------------------|


[Verse 1]

Bm
All I saw was smoke and fire
                   G
I didnt feel a thing
    D              A
But suddenly I was rising higher
Bm                                        G
And I felt like I just made the biggest mistake
       D                       F#m
When I thought about my unborn child


[Pre-Chorus]

                          A
When I thought about my wife
                        Em
And the answer rang out clear
                     A
From somewhere up above
                    Em                                G   (12th Fret Palm Mute)
No greater gift has man than to lay down his life for love   


[Chorus]

G  D          A                Bm
       I wonder, Would I give my life?
G  D   A                  EM
       Could I make that sacrifice
G  D   A                         Bm        A               Em
       If it came down to it, would I take the bullet? I would 
         G               Bm
       Yes I would, for you


[Bridge]

E|-----------------------0-------------------------0---|
B|-----------0---0-----0---------------0---0-----0-----|
G|--11\9-7-----------7-----7--11\9-7-----------7-----7-|x2
D|---------9---9---9-----------------9---9---9---------|
A|-----------------------------------------------------|
E|-----------------------------------------------------|


[Verse 2]        

Bm
Baby you dont understand
                               G
I dont understand it all myself
D                                     A          
Theres a brother on my left and another on my right
Bm
And in his pocket just like mine 
                G
Hes got a photograph
         D                       F#m
And theyre waiting for him back home


[Pre-Chorus]

                       A
Its weighing on my mind
                         Em
Im not trying to be a hero
                A
I dont wanna die
                        Em
But right now in this moment
                     
You dont think twice


[Chorus]

G  D          A                Bm
       I wonder, Would I give my life?
G  D   A                  EM
       Could I make that sacrifice
G  D   A                         Bm        A               Em
       If it came down to it, would I take the bullet? I would 
         G    
Yes I would,


[Bridge]

A
You dont think about right
Em
You dont think about wrong
A
You just do what you gotta do
Em F#m G              
      To fend your own
A                 Em        G
And Id do the same, for you.


[Guitar Solo]
(Chords - Bm G Bm G Em Bm G A Em)

E|--------------------------------------------------------------------14---14-----14-|
B|-12b15-15rb12-10-12/15-12-------------------------------------------17b19--17b19---|
G|--------------------------9-11/14-11-----------------------------------------------|
D|-------------------------------------11b12-11b12-9\7-------------------------------|
A|-----------------------------------------------------9\7p5-7p5-7-------------------|
E|-----------------------------------------------------------------7b----------------|

E|-14-----14-----14--------14----14----14-----14----14----14------------------------|
B|-17b19--17b19--17b19-----17b19-17b19-17b19--17b17-17b19-17b20-17b20-17b20-17b20---|
G|----------------------------------------------------------------------------------|
D|----------------------------------------------------------------------------------|
A|----------------------------------------------------------------------------------|
E|----------------------------------------------------------------------------------|

E|------------------------------------------------------|
B|-14-17----14-------/16---------15-17-15-17-15-17-15-15|
G|-------16----14-16----14-------14-16-14-16-14-16-14-14|
D|------------------------------------------------------|
A|-------------------------18\16------------------------|
E|------------------------------------------------------|

G D A
      I would give my life
G D    Em (building)             (Drop Out)
     I would make that sacrifice
G  D   A                         Bm        A               Em
       If it came down to it, would I take the bullet? I would 
         G              
Yes I would, for you


[Outro]

(Chorus Progression until end)
G, D, A, Bm,
G, D, A, EM,
G, D, A, Bm, A, Em, G


***********************************
| /   Slide up
| \   Slide down
| h   Hummer-on
| p   Pull-off
| v   Vibrato
| b   Bend
| r   Release
***********************************

            
            
Suggest correction
Creating personal tab
Creating personal tab
You can edit any tab online and save it as your Personal.

You can edit, replace or remove any tab part or add personal notes – all changes will be seen only by you.

Personal tabs can be accessed anytime from any device, even offline.
Learn more »
Give kudos to tab author, rate the tab!
1 2 3 4 5
comments
print report bad tab
guest
You may want to rate the tab now too:
select rating
Wanna post a correction for this tab? Suggest correction