Oops, an error
Loading. Please wait.

Highway Dont Care solo tab

version 2
version 2

Solo

1,141 views 6 this week
no commentswrite comment
1 2 3 4 5
2 more votes to show rating
add to favorites
×
Save as Personal and add changes to this tab that will be seen only by you. Learn more ›
×
You can save this tab as Personal to edit and correct it or add notes. All changes will be seen only by you. Learn more »
launch autoscroll
font size
0
reset
how to read this tab
guitar tuner
edit
Autoscroll
slow
fast
+/-
esc
set tempo
stop
Tuning: Dropped-D (DADGBE)

Chords progression played throughout the song is:

D, Bm, G, A.

Intro: (might be a bit off rhythmically at parts, but you'll get the idea)

e|--------------------------------------------------------------------------------------|
B|--------------------------------------------------------------------------------------|
G|--------------------------------------------------------------------------------------|
D|-2h4-4~----2h4-4~--4p2---2h4---------------2h4-4~---2h4-4~--4p2---2~------------------|
A|---------5-------------5-----2~-2-2-2-2-------------------------5----0-0-0-0-0-0-0----|
D|-----------------------------------------5--------5-----------------------------------|

e|--------------------------------------------------------------------------------------|
B|--------------------------------------------------------------------------------------|
G|--------------------------------------------------------------------------------------|
D|-2h4-4~--2h4-4~--2h4---------------2h4-4~---2h4-4~--4p2---2---------------------------|
A|---------------------2~-2-2-2-2-2-----------------------5---0-0-0-0-----0h2p0---------|
D|---------------------------------5--------5-------------------------2-4-------2br-0---|

Solo:
(Tried my best to sort of show rhythm of it as well using spacing)

e|--------------------------------------------------------------------|
B|-s15b~-15-14b~-12----12~-------10-----------------------------------|
G|------------------14-------s11----11~-11-9-11-11b~--9--7--6h7h9-----|
D|---------------------------------------------------------------7~---|
A|--------------------------------------------------------------------|
D|--------------------------------------------------------------------|
                                                  

e|-s12-9--------------------------------------------------------------------------------|
B|-------10-----------------------------------------------------------------------------|
G|----------9--7-6-6h7p6-------------------------12-------14--------16----------18------|
D|-----------------------7--------------------------------------------------------------|
A|--------------------------9h10p9-7-5-7b~~--s10----10s12----12s-14-------14s16----16---|
D|--------------------------------------------------------------------------------------|

e|-----------------17~---|
B|-----------------------|
G|-19-19b-19-18----------|
D|--------------19-------|
A|-----------------------|
D|-----------------------|

Outro Solo Riff:


e|-14-14br-14-12-12-----------12-14br-14-12-12--------12-14-14br-14-12-12-------12-14-13b~-12---|
B|------------------15-15--15------------------15-15----------------------15-15-----------------|
G|----------------------------------------------------------------------------------------------|
D|----------------------------------------------------------------------------------------------|
A|----------------------------------------------------------------------------------------------|
D|----------------------------------------------------------------------------------------------|


e|-----------------------------------------------------------------------------------16b~(few times)|
B|-14-15-17-(play normal speed several times)-then-14h15h17p14h15h17-(several times)----------------|
G|--------------------------------------------------------------------------------------------------|
D|--------------------------------------------------------------------------------------------------|
A|--------------------------------------------------------------------------------------------------|
D|--------------------------------------------------------------------------------------------------|

Pick slide down and then
End on a D power chord.

Fin.

            
            
Suggest correction
Creating personal tab
Creating personal tab
You can edit any tab online and save it as your Personal.

You can edit, replace or remove any tab part or add personal notes – all changes will be seen only by you.

Personal tabs can be accessed anytime from any device, even offline.
Learn more »
Give kudos to tab author, rate the tab!
1 2 3 4 5
comments
print report bad tab
guest
You may want to rate the tab now too:
select rating
Wanna post a correction for this tab? Suggest correction