Oops, an error
Loading. Please wait.

I Cant Stop Loving You tab

version 1
version 1

Whole song

2,158 views 3 this week
no commentswrite comment
1 2 3 4 5
2 more votes to show rating
add to favorites
×
Save as Personal and add changes to this tab that will be seen only by you. Learn more ›
×
You can save this tab as Personal to edit and correct it or add notes. All changes will be seen only by you. Learn more »
launch autoscroll
font size
0
reset
how to read this tab
guitar tuner
edit
Autoscroll
slow
fast
+/-
esc
set tempo
stop
Author
Unregistered
Artist - Keith Urban
Song - I Can't Stop Loving You
Tuning - Half a step down


Verse 1
    C                     G5                  Am
eb|-----------------------3--3--3--3----3--3--0--0--0--0----0--0--|
Bb|-1----1--1--1----1--1--3--3--3--3----3--3--1--1--1--1----1--1--|
Gb|-0----0--0--0----0--0--0--0--0--0----0--0--2--2--2--0h2--2--2--|
Db|-0h2--2--2--2h3--2--2--0--0--0--0h2--0--0--2--2--2--0h2--2--2--|
Ab|-3----3--3--3----3--3--x--x--x--x----x--x--0--0--0--0----0--0--|
Eb|-----------------------3--3--3--3----3--3----------------------|

    Em                  F                   G5
eb|-0--0--0--0----0--0--0----0--0--0--0--0--3--3--3--3--3--3--|
Bb|-0--0--0--0----0--0--1----1--1--1--1--1--3--3--3--3--3--3--|
Gb|-0--0--0--0----0--0--0h2--2--2--2--2--2--0--0--0--0--0--0--|
Db|-2--2--2--0h2--2--2--3----3--3--3--3--3--0--0--0--0--0--0--|
Ab|-2--2--2--0h2--2--2--3----3--3--3--3--3--x--x--x--x--x--x--|
Eb|-0--0--0--0----0--0--1----1--1--1--1--1--3--3--3--3--3--3--|
 
    F                   G5
eb|-0----0--0--0--0--0--3--3--3--3--3--3--|
Bb|-1----1--1--1--1--1--3--3--3--3--3--3--|
Gb|-0h2--2--2--2--2--2--0--0--0--0--0--0--|
Db|-3----3--3--3--3--3--0--0--0--0--0--0--|
Ab|-3----3--3--3--3--3--x--x--x--x--x--x--|
Eb|-1----1--1--1--1--1--3--3--3--3--3--3--|

    C                     G5                  Am
eb|-----------------------3--3--3--3----3--3--0--0--0--0----0--0--|
Bb|-1----1--1--1----1--1--3--3--3--3----3--3--1--1--1--1----1--1--|
Gb|-0----0--0--0----0--0--0--0--0--0----0--0--2--2--2--0h2--2--2--|
Db|-0h2--2--2--2h3--2--2--0--0--0--0h2--0--0--2--2--2--0h2--2--2--|
Ab|-3----3--3--3----3--3--x--x--x--x----x--x--0--0--0--0----0--0--|
Eb|-----------------------3--3--3--3----3--3----------------------|

    Em                 F                   G5
eb|-0------------------0----0--0--0--0--0--3--3--3--3--3--3--|
Bb|-0--0----0----------1----1--1--1--1--1--3--3--3--3--3--3--|
Gb|-0--0h2--0--0----0--0h2--2--2--2--2--2--0--0--0--0--0--0--|
Db|-2----------0h2--0--3----3--3--3--3--3--0--0--0--0--0--0--|
Ab|-2------------------3----3--3--3--3--3--x--x--x--x--x--x--|
Eb|-0------------------1----1--1--1--1--1--3--3--3--3--3--3--|

    F                   G5     E7/G#   Am
eb|-0----0--0--0--0--0--3--3--3-----0--0--0--0--|
Bb|-1----1--1--1--1--1--3--3--3--3--1--1--1--1--|
Gb|-0h2--2--2--2--2--2--0--0--0--4--2--2--2--2--|
Db|-3----3--3--3--3--3--0--0--0--2--2--2--2--2--|
Ab|-3----3--3--3--3--3--x--x--x--x--0--0--0--0--|
Eb|-1----1--1--1--1--1--3--3--3--4--------------|

eb|-------3--------------------------3--|
Bb|----3--------3--------3--------3-----|
Gb|-0-----------------------------------|
Db|----------3-----3--2-----2--0--------|
Ab|-------------------------------------|
Eb|-------------------------------------|

Verse 1 Lyrics
You got your ticket, got your suitcase
You got your leaving smile
I could say that's the way it goes
I could pretend and you won't know
That I was lying


Chorus 1
          C     G5    F          Bb|-6--5--6--|
'Cause I can't stop lovin' you   Gb|-5--5--5--|

   C     G5    F           eb|-1-------1--1----1~--|
I can't stop lovin' you    Bb|-1-------1--1h3--1~--|
                           Gb|----0h2--------------|

      C     G5    F
No I can't stop lovin' you

Though I try eb|-----------6--------------------------|
             Bb|--------6-----6-----------6--8b10r8~--|
             Gb|-----7-----------7-----5--------------|
             Db|-/8-----------------7-----------------|



Verse 2/Lead - Chords are the same as verse 1 with a few slight changes

< = Volume swell

1:34
    < 
Gb|-9~---|           

1:37
    <               
Gb|-7~---|

1:40
    < 
Gb|-10~--|

1:46
     <
eb|--------------|
Bb|--13pb15r13~--|
Gb|--------------|

1:50
     <
eb|--------------|
Bb|--12pb13r12~--|
Gb|--------------|

1:53
     <
eb|-------|
Bb|--10~--|
Gb|-------|

1:57 Hold
     <     <     <  
eb|--------10------------------|
Bb|--10b12~----pb12r10--8b10~--|
Gb|----------------------------|

2:05
     <           < 
eb|--15---------------|
Bb|--15pb17r15---13~--|
Gb|-------------------|


2:16
eb|---------------15b17r15~--|
Bb|-------13--13-------------|
Gb|--/14---------------------|

Verse 2 Lyrics
We took a taxi to the station, not a word was said
No, I saw you walk across the road
It may be the last time I don't know feeling humble
Heard a rumble on the railway tracks
And when I hear that whistle blow
I walked away and you won't know
That I was crying


Chorus 2
          C     G5    F          Bb|-6--5--6--|
'Cause I can't stop lovin' you   Gb|-5--5--5--|

      C     G5    F           eb|-1-------1--1----1~--|
No I can't stop lovin' you    Bb|-1-------1--1h3--1~--|
                              Gb|----0h2--------------|
        C     G5     F
I just can't stop lovin' you
        

Though I try  eb|-----------5-----|
              Bb|--------6-----6--|
              Gb|-----5-----------|
              Db|--7--------------|

        C     G5    F          Bb|-6--5--6--|
I just can't stop lovin' you   Gb|-5--5--5--|

      C     G5    F           eb|-1-------1--1----1~--|
No I can't stop lovin' you    Bb|-1-------1--1h3--1~--|
                              Gb|----0h2--------------|

        C     G5    F
I just can't stop lovin' you

         Bb            F
Why do I try? Why do I try?



Solo
              Hold                           Grad.bend
eb|----------------------------------------------------------------------------|
Bb|---------------6------------------------------------------------------------|
Gb|--7b8~-5-7-7b9---9r7--5~--------------5-7-7b8b9b10---7pb9r7-5-5h7-----------|
Db|---------------------------------5-7------------------------------7~--5--7--|
Ab|----------------------------5/7---------------------------------------------|
Eb|----------------------------------------------------------------------------|

eb|-------------------------------------------------------------------------------------|
Bb|-------------------------------------------------------------------------------------|
Gb|-------------------------------------------------------------------------------------|
Db|-------------------------------------7-----------------------------------------------|
Ab|--5b7-5~--5b7r5p3--5-3-3~-------3/5----8/10--8b10r8-8pb10r8-8pb10r8-8pb10r8-8pb10r8--|
Eb|----------------------------3-5------------------------------------------------------|

eb|-----------------------------------------------------------------8--10~--8----------|
Bb|---------------------------------------------------8~------8-10------------8--------|
Gb|------------------------------------------------/9-----10--------------------10-9~--|
Db|-------------------------------------------10~--------------------------------------|
Ab|--8pb10r8-8pb10r8~---6-8-6\5---5-------6/7------------------------------------------|
Eb|-----------------------------8---8-6h8----------------------------------------------|

eb|-------------------------------------------------15~--15~--15~--15~--15~--15-----------------|
Bb|-----8------15----15----15b18pb17r13~--13-15/17------------------------------18-17-17b18r17--|
Gb|--/9---9/16----16----17----------------------------------------------------------------------|
Db|---------------------------------------------------------------------------------------------|
Ab|---------------------------------------------------------------------------------------------|
Eb|---------------------------------------------------------------------------------------------|

eb|----------------------------------------------------------------------------15--|
Bb|--17pb18r17--17~--17\15-13-15b17-15~-13-15b17-15~-15~-15~-15~-15~-15-13~-13-----|
Gb|--------------------------------------------------------------------------------|
Db|--------------------------------------------------------------------------------|
Ab|--------------------------------------------------------------------------------|
Eb|--------------------------------------------------------------------------------|
     Hold              Hold
eb|--------15------15--------15------15-----------------------------20~-------20~--|
Bb|--15b17----pb17-----15b17----pb17----pb17b20--15pb17r13~/--22b25-----22b24------|
Gb|--------------------------------------------------------------------------------|
Db|--------------------------------------------------------------------------------|
Ab|--------------------------------------------------------------------------------|
Eb|--------------------------------------------------------------------------------|
                                                                       Hold     |
eb|--22b25-22b24-22b24-22b24-22b24r22-20~-20b22r20-19~-19b20r19--------------20-|
Bb|-------------------------------------------------------------20b22-20b22~----|
Gb|-----------------------------------------------------------------------------|
Db|-----------------------------------------------------------------------------|
Ab|-----------------------------------------------------------------------------|
Eb|-----------------------------------------------------------------------------|

            Hold
eb|----------------18-18-|
Bb|-20b22~--18b20--------|
Gb|----------------------|
Db|----------------------|
Ab|----------------------|
Eb|----------------------|
     Hold                                  C      G5     F                 C    G        F
eb|---------18-18--------/18---15\----------------3------1----------------------3--------1--|
Bb|--18b20--------18b20~-------------------1------3------1---13--13--13\---1----3--------1--|
Gb|----------------------------------------0------0------x---14--12--14\---0----0--------x--|
Db|----------------------------------------2------0------3-----------------2----0--------3--|
Ab|----------------------------------X\----3------x------3-----------------3----x---X\---3--|
Eb|----------------------------------X\-----------3------1----------------------3---X\---1--|
Suggest correction
Creating personal tab
Creating personal tab
You can edit any tab online and save it as your Personal.

You can edit, replace or remove any tab part or add personal notes – all changes will be seen only by you.

Personal tabs can be accessed anytime from any device, even offline.
Learn more »
Give kudos to tab author, rate the tab!
1 2 3 4 5
comments
print report bad tab
guest
Wanna post a correction for this tab? Suggest correction