Oops, an error
Loading. Please wait.

Im In Tab

13,679 views 1 this week
no commentswrite comment
1 2 3 4 5
accurate
x 4
add to favorites
launch autoscroll
font size
0
reset
how to read this tab
guitar tuner
Autoscroll
slow
fast
+/-
esc
set tempo
stop
Help us to improve Ultimate-Guitar.com Take our survey!
×
Author
Capo
5th fret
-------------------------------------------------------------------------------
                            I'M IN - Keith Urban
-------------------------------------------------------------------------------
Tabbed by: Barry Miles

Drop D, Capo on 5th

Intro/Verse
e|-----------------|-----------------|-----------------|-----------------|
B|-----1-----1-----|-----0-----0-----|-----1-----1-----|-----1-----1-----|
G|---0-----0-----0-|---0-----0-----0-|---2-----2-----2-|---0-----0-----0-|
D|-2-----2-----2---|-0-----0-----0---|-0-----0-----0---|-3-----3-----3---|
A|-----------------|-----------------|-----------------|-----------------|
E|-----------------|-----------------|-----------------|-----------------|

C             G             Dm7      Fsus2
 Love doesn't come with a contract
 You give me this I gave you that

Prechorus:
e|-----------------|-----------------|-----------------|-----------------|
B|-----1-----1-----|-----1-----1-----|-----1-----1-----|-----1-----1-----|
G|---0-----0-----0-|---0-----0-----0-|---0-----0-----0-|---0-----0-----0-|
D|-3-----3-----3---|-3-----3-----3---|-2-----2-----2---|-2-----2-----2---|
A|-----------------|-----------------|-----------------|-----------------|
E|-----------------|-----------------|-----------------|-----------------|

                                      (w/electric guitar)
e|-----------------|-----------------|-----------------|-----------------|
B|-----1-----1-----|-----1-----1-----|-3-3-3-3-3-3-3-3-|-3-3-3-3-3-3-3-3-|
G|---0-----0-----0-|---0-----0-----0-|-0-0-0-0-0-0-0-0-|-0-0-0-0-0-0-0-0-|
D|-3-----3-----3---|-3-----3-----3---|-0-0-0-0-0-0-0-0-|-0-0-0-0-0-0-0-0-|
A|-----------------|-----------------|-5-5-5-5-5-5-5-5-|-5-5-5-5-5-5-5-5-|
E|-----------------|-----------------|-5-5-5-5-5-5-5-5-|-5-5-5-5-5-5-5-5-|
                                      (crescendo: get louder, hit harder)

(electric strums each chord once)
F                   C/E
 It's scary business, Your heart and soul is on the line
F                         G
 Baby why else would I be standing round here so tongue-tied

Chorus:
     C               G            Dm7            Fsus2
If I knew what I was doing I'd be doing it right now
        C                G            Dm7             Fsus2
I would be the best damn poet, silver words out of my mouth
        Am7                G/B                 Fsus2/C
Well my words might not be magic, but they cut straight to the truth 
   Dm7           C/E         Fsus2  G
So if you need a lover and a friend, baby I'm in ... I'm in

Interlude:
e|-0-0---0---1---0-|-----------------|-0-0---0---1---0-|-----------------|
B|-1---------------|---1-------------|-1---------------|---1-------------|
G|-0---------------|-0------0--------|-2---------------|-0-----0---------|
D|-2---------------|-0---------------|-0---------------|-3---------3-----|
A|-3---------------|-2---------------|-----------------|-3---------------|
E|-----------------|-----------------|-----------------|-----------------|

Verse (rhythm electric, Drop D):
e|-----------------|-----------------|-----------------|-----------------|
B|-----------------|-----------------|-----------------|-----------------|
G|-----------------|-----------------|-----------------|-----------------|
D|-----------------|-----------------|-----------------|-----------------|
A|-3-3-3-3-3-3-3/5\|-2-2-2-2-2-2-2/5\|-----------------|-----------------|
E|-----------------|-----------------|-0-0-0-0-0-0-0-2-|-3-3-3-3-3-3-3-3-|

Baby come on in the water's fine
I'll be right here you take your time

Prechorus (rhythm):
e|-----------------|-----------------|-----------------|-----------------|
B|-----------------|-----------------|-----------------|-----------------|
G|-----------------|-----------------|-----------------|-----------------|
D|-----------------|-----------------|-----------------|-----------------|
A|-----------------|-----------------|-----------------|-----------------|
E|-3-3-3-3-3-3-3-3-|-3-3-3-3-3-3-3-3-|-2-2-2-2-2-2-2-2-|-2-2-2-2-2-2-2-2-|

e|-----------------|-----------------|-----------------|-----------------|
B|-----------------|-----------------|-----------------|-----------------|
G|-----------------|-----------------|-----------------|-----------------|
D|-----------------|-----------------|-----------------|-----------------|
A|-----------------|-----------------|-----------------|-----------------|
E|-3-3-3-3-3-3-3-3-|-3-3-3-3-3-3-3-3-|-5-5-5-5-5-5-5-5-|-5-5-5-5-5-5-5-5-|

Just let me hold you and we'll both take that leap of faith
It's like I told you there's no guarantees when you feel this way

Chorus

Solo 1:
e|-----------------|-----------------|-----------------|-----------------|
B|-6p5-------------|-----------------|-----------------|-----------------|
G|-----5-----------|-5p4-------------|-----------------|-----------------|
D|-------5----\----|-----5-5---------|-----------------|-----------------|
A|-----------------|-----------------|-/5---/5---3-0---|-----------------|
E|-----------------|-----------------|---------------5-|-3---------------|

e|-----------------|-----------------|-----------------|-----------------|
B|-6p5-------------|-----------------|-----------------|-----------------|
G|-----5-----------|-5p4-------------|-----------------|-----------------|
D|-------5----\----|-----5-5---------|-----------------|-----------------|
A|-----------------|-----------------|-/5---/5---3-0---|-----------------|
E|-----------------|-----------------|---------------5/|/7---------------|

Bridge (intro riff)
C              G               Dm7               Fsus2  
Baby come here next to me I'll show you how good it can be
     C                       G             Dm7           Fsus2
I'll breathe each breath you breathe I can pour out everything I am

Solo 2: (relative to capo)
  F                                    C
e|-8---8---8--8--8-|-8--8--8--8--8---|-----------------|-----------------|
B|-11b-11b-11b11b11|-11b11b11b11b11b-|---8-------------|-----------------|
G|-----------------|-----------------|---10b------10p9-|-10-h12-10-9--3h5|
D|-----------------|-----------------|-----------------|-----------------|
A|-----------------|-----------------|-----------------|-----------------|
E|-----------------|-----------------|-----------------|-----------------|
  
  Eb                                   G
e|-----------------|-----------------|-------0-3p0-3p0-5p0|-8------------|
B|-4---------------|-----------------|---1h3--------------|-11b----------|
G|-6b----5--3------|-----------------|--------------------|--------------|
D|--------------3--|-3b----3---------|--------------------|--------------|
A|-----------------|----------3------|--------------------|--------------|
E|-----------------|-----------------|--------------------|--------------|

Chorus

Solo 1

Outro (acoustic):
C              G               Dm7               Fsus2  
Baby come here next to me I'll show you how good it can be
     C                       G             Dm7           Fsus2
I'll breathe each breath you breathe I can pour out everything I am
C              G               Dm7               Fsus2
Baby come here next to me I'll show you how good it can be
C              G               Dm7               Fsus2
Baby come here next to me I'll show you how good it can be
C
Baby come here, baby come here, baby come here

| /  slide up
| \  slide down
| h  hammer-on
| p  pull-off
| ~  vibrato
| +  harmonic
| x  Mute note
===============================================================================
Suggest correction new What's this?
You can suggest a correction to this tab. Community and Mods will review your correction and vote to approve or reject it.
comments
print report bad tab
guest
You may want to rate the tab now too:
select rating
Please do not post tabs as comments. Select "correction" instead!