Oops, an error
Loading. Please wait.

Kiss A Girl tab

version 3
version 3

Whole song

5,414 views 1 this week
1 commentread comment
1 2 3 4 5
2 more votes to show rating
add to favorites
×
Save as Personal and add changes to this tab that will be seen only by you. Learn more ›
×
You can save this tab as Personal to edit and correct it or add notes. All changes will be seen only by you. Learn more »
launch autoscroll
font size
0
reset
how to read this tab
guitar tuner
backing track
0:00
0:00
edit
Autoscroll
slow
fast
+/-
esc
set tempo
stop
Author
this sounds best with light distortion.

intro                                                          2nd time playing intro
e|--------------------------------------------------------------|---10\--|
B|---------------------------------------2----------------2-----|---10\--|
G|-7-7-7-7-7-7/--6-6-6-6-6-6/--4-4-4-4-4-2-2/4--4-4-4-4-4-2-----|--------|
D|-7-7-7-7-7-7/--7-7-7-7-7-7/--4-4-4-4-4-2------4-4-4-4-4-2-----|--------|
A|-5-5-5-5-5-5/--5-5-5-5-5-5/--5-5-5-5-5--------5-5-5-5-5----6\-|--------|
E|-----------------------------------------------------------6\-|--------|

verse                                                  pre-chorus  G
e|---------------------------------------------------------|-------3---|x2
B|-----------------------------------2------------2--------|-3p2---0---|
G|-x-x-x-x-7-6--x-x-x-x-6-4--x-x-x-x-2-4--x-x-x-x-2-4------|-----2-0---|
D|-x-x-x-x-7-7--x-x-x-x-7-4--x-x-x-x-2-4--x-x-x-x-2-4------|-------0---|
A|-x-x-x-x-5-5--x-x-x-x-5-5--x-x-x-x---5--x-x-x-x---5------|-------2---|
E|---------------------------------------------------------|-------3---|

chorus
D
I wanna kiss a girl
A
I wanna hold her tight
G
And maybe make a little magic in the moonlight
D
Don't wanna go too far
A                  B
Just to take it slow
G
But I shouldn't be lonely in this big ol' world
e|--------------3-|
B|-3p2----------0-|
G|-----2--------0-|
D|-------2p0----0-|
A|-----------4--2-|
E|--------------3-|
I wanna kiss a girl

intro
verse
chorus

Solo
e|--9/10--9-7-5--3/5--3-2-0---------------------------------------------|
B|---------------------------3--5/7-7bh--7-8/10-10-14-15/17-15-17-17/19-|
G|----------------------------------------------------------------------|
D|----------------------------------------------------------------------|
A|----------------------------------------------------------------------|
E|----------------------------------------------------------------------|

e|------------------------------------14-12----------------------------|
B|--19b-19-17\15--15/22-22-22-22-22\--------14-12-11-------------------|
G|---------------------------------------------------11/13-12-10-------|
D|---------------------------------------------------------------------|
A|----------------------------------------------------------------x-12\|
E|----------------------------------------------------------------x-12\|

chorus
intro to fade

            
            
Suggest correction
Creating personal tab
Creating personal tab
You can edit any tab online and save it as your Personal.

You can edit, replace or remove any tab part or add personal notes – all changes will be seen only by you.

Personal tabs can be accessed anytime from any device, even offline.
Learn more »
Give kudos to tab author, rate the tab!
1 2 3 4 5
comments
print report bad tab
1 comment total.
0 reply
braedon.rogers99 10 Nov 05, 2015 04:30 PM, edited at 09:31 pm

What I found sounds good for the intro is putting Capo on 5 and playing this (numbers based relative to the capo, of course)

e-------0h2---------0h2--------2-2-2-2-2-2
B-------0h2---------0h2--------2-2-2-2-2-2
G--222222------111111----------2-2-2-2-2-2
D--222222------111111----------4-4-4-4-4-2
A--000000------000000----------5-5-5-5-5-5
E--XXXXXX------XXXXXX----------X-X-X-X-X-X

guest
You may want to rate the tab now too:
select rating
Wanna post a correction for this tab? Suggest correction