Oops, an error
Loading. Please wait.

Making Memories Of Us Tab

version 1
version 1

Whole song

Interactive

Video

16,043 views 3 this week
1 commentread comment
1 2 3 4 5
3 more votes to show rating
add to favorites
launch autoscroll
font size
0
reset
how to read this tab
guitar tuner
Autoscroll
slow
fast
+/-
esc
set tempo
stop
Help us to improve Ultimate-Guitar.com Take our survey!
×
Author
Difficulty
novice
I just started playing about two months ago so this should take a while.  This intro is 
played with a regular guitar but it sounds pretty close playin it this way.  Ill post 
as I figure it out.


------------------------------------|
------------------------------------|
------------------------------------|  x2
----9-----------9-------------------|
9h7---9-7---9h7---9-7---6--7/9--7---|
------------------------------------|
Suggest correction
Give kudos to tab author, rate the tab!
1 2 3 4 5
comments
print report bad tab
1 comment total.
0 reply
ariana1341 16 Oct 21, 2008 02:37 AM

Not too bad dude, atleast you got the main rhytym down, but it sounds like you're in the wrong key. Try this out:

e-------------------------------------------------
B-------------------------------------------------
G------4------------4-----------------------------
D--4-6---4--2---4-6---4--2---1--1--2/4---2--2-----
A-------------------------------------------------
E-------------------------------------------------

Try playing around with this and the recording until you can get it down. Let me know how it works for you. Good luck.

guest
You may want to rate the tab now too:
select rating
Wanna post a correction for this tab? Suggest correction