Oops, an error
Loading. Please wait.

Nobody Drinks Alone Chords

version 2
version 2

Whole song

5,338 views 6 this week
no commentswrite comment
1 2 3 4 5
excellent!
x 2
add to favorites
launch autoscroll
font size
0
reset
transpose
0
reset
simplify chords
- display chords -
guitar tuner
Tab Pro tools
  • play this tab
  • loop segment
  • change instrument
  • show fretboard
  • metronome
Autoscroll
slow
fast
+/-
esc
set tempo
stop
Contributor
Difficulty
intermediate
-------------------------------------------------------------------------------
                             Nobody Drinks Alone - Keith Urban
-------------------------------------------------------------------------------
Tabbed by: snowstrat


Tuning: Standard
*capo 2*
The other version is basically correct, I just added some things
For the tabs, i tried to show the timing, but really just listen to the song and adapt 
to what sounds best to you

Intro/Verse tab

e|---------------------------------------------------------------------------|
B|--0h2-2--2/4-4-5-4h5h4/2--2--2-0-0-0--2-2----------------------------------|
G|--0h2-2--2/4-4-4-4----/2--2--2-2-2-2--2-2----------------------------------|
D|--0h2-2--2/4-4-4-4----/2--2--2-2-2-2--2-2----------------------------------|
A|--0---0--0---0-0-------0--0--0-0-0-0--0-0----------------------------------|
E|---------------------------------------------------------------------------|

You brought that bottle home in a paper sack
You drew the blinds and locked the door
And there's nothing but empty there inside that glass
So you poor a little more

            F#     Esus?    A
And there's no one there to judge you
                F#       Esus A       B
At least that's what you tell yourself


          C#m-A-E-B            C#m-A-E-
Don't you know   nobody drinks alone
B                  C#m              A
Every demon, every ghost, from your past
          E                  B
And every memory you've held back
            see below
Follows you home

Nobody drinks alone

Chorus tab
e|--0--0--0-0----------------------------------------------------------------|
B|--2--2--2/4-4-5--4---4-----------------------------------------------------|
G|--2--2--2/4-4-4--4---4-----------------------------------------------------|
D|--2--2--2/4-4-4--4---4-----------------------------------------------------|
A|--0--0----0------2-2-2-----------------------------------------------------|
E|---------------------------------------------------------------------------|
Its basically an A, slide up to a partial B, add1, then a regular B, just listen for the timing


Intro/Verse tab

You remember whiskey on your daddy's breath
So you always stick to wine
And you scared your little brother half to death
You just kept it all inside


            F#     Esus?    A
And there's no one there to judge you
                F#       Esus A       B
At least that's what you tell yourself


          C#m-A-E-B            C#m-A-E-
Don't you know   nobody drinks alone
      B            C#m              A
Every demon, every ghost, from your past
          E                  B
And every memory you've held back
            Chorus tab
Follows you home

Nobody drinks alone


lead C#m-A-E-B (2x)

Dsus2
Though you're lonely, hey
                       A    (E|--10/0--)
Don't let that feelin' fool ya


B         C#m-A-E-B            C#m-A-E-
Don't you know   nobody drinks alone
      B            C#m              A
Every demon, every ghost, from your past
          E                  B
And every memory you've held back
            Chorus tab
Follows you home
              Intro/Verse tab until end
Nobody drinks alone

Esus? - 001230

Dsus2 - 03200-

The bridge is still shaky, but I think that sounds the best, any comments or suggestions 
welcome, thanks
comments
We did not receive enough feedback on this tab! Please rate:
print report bad tab
1 2 3 4 5
I want to post or [tab]
guest
You may want to rate the tab now too:
select rating
Please do not post tabs as comments. Select "correction" instead!