Oops, an error
Loading. Please wait.

Raining On Sunday Tab

version 1
version 1

Intro

Whole song

1,275 views 6 this week
no commentswrite comment
1 2 3 4 5
3 more votes to show rating
add to favorites
launch autoscroll
font size
0
reset
how to read this tab
guitar tuner
Autoscroll
slow
fast
+/-
esc
set tempo
stop
Help us to improve Ultimate-Guitar.com Take our survey!
×
Author
Difficulty
Capo
novice
4th fret
Tabs relative to capo on 4
The listen to the song to figure out the timing.
  Em                  C  Slide 2 frets up  Em            C
e|--0--------0-0---0------0-----------------------0---0------|
B|---0-------0-0-----0-1--1-----------3-----------0-----0h1--|
G|----0------0-0----------0---------0---0---------0----------|
D|-----2-----2-2----------2-------4-------4\2-----2----------|
A|------0h2--2-2----------3---3/5--------------2b-2----------|
E|-----------0-0-0--------0-----------------------0--0-------|

   Slide up 2 frets Em
e|-0----------------------0---------------------------------|
B|-1-----------3----------0---------------------------------|
G|-0---------0---0--------0---------------------------------|
D|-2-------4-------4\2----2---------------------------------|
A|-3---3/5-------------2--2---------------------------------|
E|-0----------------------0---------------------------------|

He starts singing on the last strum of Em
Suggest correction
Give kudos to tab author, rate the tab!
1 2 3 4 5
comments
print report bad tab
guest
You may want to rate the tab now too:
select rating
Wanna post a correction for this tab? Suggest correction