Oops, an error
Loading. Please wait.

Right On Back To You tab

5,854 views 6 this week
1 commentread comment
1 2 3 4 5
x 4
add to favorites
×
Save as Personal and add changes to this tab that will be seen only by you. Learn more ›
×
You can save this tab as Personal to edit and correct it or add notes. All changes will be seen only by you. Learn more »
launch autoscroll
font size
0
reset
how to read this tab
guitar tuner
edit
Autoscroll
slow
fast
+/-
esc
set tempo
stop
Difficulty
intermediate
Keith Urban - Right On Back To You
Get Closer
Tabbed by Craig Sonneveld


Theme:
e|--------------------------------------------------|
B|--------------------------------------------------|
G|-9/11-14--14/16-14-11-11/13-11--4-4/6-7-2---------|
D|--------------------------------------------------|
A|-7/9--12--12/14-12-9--9/10--9---2-2/4-5-0---------|
E|--------------------------------------------------|


Lead into verse 1:
e|--------------------------------------------------|
B|--2h3p3-------------------------------------------|
G|--2-----4~----------------------------------------|
D|--------------------------------------------------|
A|--------------------------------------------------|
E|--------------------------------------------------|


Verse 1:
   G     Dsus2                 G         Bm     A       Em           G
e|----------0----------------------------2--------------------0------------|
B|--------3---3-----------------3--------3--------5~--------3---3----3-----|
G|-4~---2---------2---<7>b9------2b4-----4----------------0-------0--0-----|
D|------0-------0------------------------4------2-------2------------0-----|
A|---------------------------------------2------0-------2------------------|
E|-3~---------------------------------------------------0------------3-----|


Chorus 1:
   Dsus2  A   G                 Dsus2    A   G
e|--0-----------------------------0-------------------|
B|--3-----2---3-------------------3------2----3-------|
G|--2-----2---0-------------------2------2----0-------|
D|--0-----2---0-2/4\2p0-----------0------2----0-------|
A|--------0-------------2p0--------------0------------|
E|------------3-------------------------------3-------|

Repeat Theme

Verse 2
          G   Dsus2   G                            Bm                Em      G
e|-5----------0--------------------------------------------------------0----------------|
B|---8b10------3--12b14rb12b13rb12b13rb12--------------12---10b12-------3----3----------|
G|----------------------------------------9/11-9~--9/11----------9~------0---0----------|
D|--------------------------------------------------------------------2------0-2/4\2-0--|
A|--------------------------------------------------------------------2-----------------|
E|--------------------------------------------------------------------0------3----------|

Chorus 2
 Dsus2 A  G                  Dsus2 A   G   Em7
e|-0---------------------------0-----------0-0----------|
B|-3---2--3-3------------------3---2---3---3---3--------|
G|-2---2--0-0-2b4rb2-----------2---2---0---0------------|
D|-0---2--0-0------------------0---2---0---2------------|
A|-----0-------------2/4\2---------0-------2------------|
E|--------3----------------------------3---0------------|


Bridge:

Guitar 1
   Bm       C        Bm         A   G
e|------------3------------2---------------------|
B|-3-3-2-3--1---1--------3---3--2---3------------|
G|-4--------0-----0--4-4--------2---0------------|
D|-4--------2--------4----------2---0------------|
A|-2--------3--------2----------0----------------|
E|----------------------------------3------------|

Guitar 2
  Bm               C                Bm 
e|------------------------------------------------------|
B|-7----------------5----------5-----7----7-------------|
G|-9b11rb9p7---6-7--7b9-9rb7-5-7b9---9b11-9b11-7--------|
D|-----------9-----------------------------------9-7-9--|
A|------------------------------------------------------|
E|------------------------------------------------------|



Solo
e|--------------------------------------------------------------------------5-------|
B|-17b19b20rb17---17b19rb17--15-15--12/15-10~--12/15-10h12-7/10-5/7---5-7-8-8b10~---|
G|------------------------------------------------------------------7---------------|
D|----------------------------------------------------------------------------------|
A|----------------------------------------------------------------------------------|
E|----------------------------------------------------------------------------------|


Outro solo:
e|------------------------------------------------------|
B|-/10-10-10~-10~--10\----10---12~--12-10---------------|
G|---------------------/9----9-----------(11)\9b11-7~---|
D|-/7--7------------------------------------------------|
A|------------------------------------------------------|
E|------------------------------------------------------|

e|--------------------------------------------------|
B|---------------------------10-12--15~15~15~15~----|
G|-7-9b11-9b12rb11rb9p7--/11------------------------|
D|--------------------------------------------------|
A|--------------------------------------------------|
E|--------------------------------------------------|

e|-----------------------------------------------------------|
B|-14b15-14b15-14~-14h15\10-10--------15-----------15----17--|
G|------------------------------14-16----16--14-16----16-----|
D|-----------------------------------------------------------|
A|-----------------------------------------------------------|
E|-----------------------------------------------------------|



e|---------------------------------------------------------------------------17---|
B|-17-19-20-19-17-19-19-17---17--19--17--20--19--17--19--17--19--20--19--20-------|
G|-------------------------19--19--19--19--19--19--19--19--19--19--19--19--19--19-|
D|--------------------------------------------------------------------------------|
A|--------------------------------------------------------------------------------|
E|--------------------------------------------------------------------------------|

e|------------------------------------17-------------------------------------|
B|20--19--20--19--17--19--20--19--20------20--19--20--19--17--19--17--19--17-|
G|--19--19--19--19--19--19--19--19--19--19--19--19--19--19--19--19--19--19---|
D|---------------------------------------------------------------------------|
A|---------------------------------------------------------------------------|
E|---------------------------------------------------------------------------|


e|----------------------------------------------------------------------|
B|-20b22slowrb20--19b20-19b20-19~---------------------------------------|
G|---------------------------------19b22rb19~-/--\---4b6rb4p<2>---------|
D|----------------------------------------------------------------------|
A|----------------------------------------------------------------------|
E|----------------------------------------------------------------------|

            
            
Suggest correction
Creating personal tab
Creating personal tab
You can edit any tab online and save it as your Personal.

You can edit, replace or remove any tab part or add personal notes – all changes will be seen only by you.

Personal tabs can be accessed anytime from any device, even offline.
Learn more »
comments
print report bad tab
1 comment total.
0 reply
sean678 10 Nov 02, 2013 11:21 AM

great job man, thanks for taking the time to do it!

guest
Wanna post a correction for this tab? Suggest correction