Oops, an error
Loading. Please wait.

Somewhere In My Car tab

version 1
version 1

Whole song

Interactive

69,811 views 96 this week
4 commentsread comments
1 2 3 4 5
x 35
add to favorites
×
Save as Personal and add changes to this tab that will be seen only by you. Learn more ›
×
You can save this tab as Personal to edit and correct it or add notes. All changes will be seen only by you. Learn more »
launch autoscroll
font size
0
reset
how to read this tab
guitar tuner
edit
Autoscroll
slow
fast
+/-
esc
set tempo
stop
[Intro]

e|-----------------------------------3---2---------------------------|
B|---------1---0-------------------0---0---3-------------------------|
G|-------0---0---0---2-----------------------------------------------|
D|-------------------------------------------------------------------|
A|-----3-------------------------------------------------------------|
E|-------------------------------3-----------------------------------|

e|-----------------------------------3---2--3------------------------|
B|---------1---0-------------------0---0-----------------------------|
G|-------0---0---0---2-----------------------------------------------|
D|-----2-------------------------0-----------------------------------|
A|-------------------------------------------------------------------|
E|-------------------------------------------------------------------|


[Verse]

C                         G
I'm driving home tonight, catching all red lights
Em                   D
That's alright cause I don't want to be alone
C                           G
There's nobody waitin' there, cold and empty bed
Em                    D
Words I wished I'd said come on the radio


[Pre-Chorus]

C          G Em                             D
Ooh, oh, oh, and I don't know why I do this to myself
C          G Em                          D
Ooh, oh, oh, I know you're with someone else


[Chorus]

          C
But in my mind were somewhere in my car
G                    Em
And it's raining hard on the streetlight glow
D                     C
You got your lips on mine, its gasoline on fire
G              Em                                    D
I never will forget, you grabbed my shirt and pulled it over my head
C
And your fingertips slide up and down my back
G
Breathin' hard, steamin' up the glass
Em                                          D
Id give anything if I could bring you back home


[Instrumental]

C G Em D


[Verse]

C                           G
So, I've been sleeping til noon in the same bedroom
Em                    D
Where I once held you and its breaking my heart
C                   D
I should take down all those pictures from my wall
Em               D
Promises we made won't fill this empty space


[Pre-Chorus]

C          G Em                               D
Ooh, oh, oh, and I don't know why I just cant let you go
C          G Em                            D
Ooh, oh, oh, I know you're never coming back


[Chorus]

          C
But in my mind were somewhere in my car
G                    Em
And it's raining hard on the streetlight glow
D                     C
You got your lips on mine, its gasoline on fire
G              Em                                    D
I never will forget, you grabbed my shirt and pulled it over my head
C
And your fingertips slide up and down my back
G
Breathin' hard, steamin' up the glass
Em                                          D
Id give anything if I could bring you back home

          C
But in my mind were somewhere in my car
G                    Em
And it's raining hard on the streetlight glow
D                     C
You got your lips on mine, its gasoline on fire
G              Em                                    D
I never will forget, you grabbed my shirt and pulled it over my head
C
And your fingertips slide up and down my back
G
Breathin' hard, steamin' up the glass
Em                                          D
Id give anything if I could bring you back home


[Outro]

C G Em D (x6)

e|----2--3--3----------2--3--3----------2--3--3---------2--3--5------|
B|------------5--5-------------3--3-------------5--5------------3--3-|
G|-------------------------------------------------------------------|
D|-------------------------------------------------------------------|
A|-------------------------------------------------------------------|
E|-------------------------------------------------------------------|

            
            
Suggest correction
Creating personal tab
Creating personal tab
You can edit any tab online and save it as your Personal.

You can edit, replace or remove any tab part or add personal notes – all changes will be seen only by you.

Personal tabs can be accessed anytime from any device, even offline.
Learn more »
comments
print report bad tab
4 comments total. Showing first comments.
0 reply
Maksimum 51 Oct 10, 2013 11:48 AM

Under 'Chords', 4th verse, 3rd line.. D chord above the word 'all' needs to be changed to a G.

+1 reply
Maksimum 51 Oct 10, 2013 11:51 AM

::::OUTRO UPDATE::::

E ----2--3--2----------2--3--2----------2--3--2---------2--3--5------|
B ------------5--5-------------3--3-------------5--5------------3--3-|
G -------------------------------------------------------------------|
D -------------------------------------------------------------------|
A -------------------------------------------------------------------|
E -------------------------------------------------------------------|

+1 reply
sean678 10 Nov 02, 2013 11:13 AM

I don't always play tabs, but when I do, I prefer...Maksimum. stay tabbing my friend

guest
You may want to rate the tab now too:
select rating
Wanna post a correction for this tab? Suggest correction