Oops, an error
Loading. Please wait.

Somewhere In My Car tab

version 2
version 2

Whole song

Interactive

840 views 1 this week
1 commentread comment
1 2 3 4 5
1 last vote to show rating
add to favorites
×
Save as Personal and add changes to this tab that will be seen only by you. Learn more ›
×
You can save this tab as Personal to edit and correct it or add notes. All changes will be seen only by you. Learn more »
launch autoscroll
font size
0
reset
how to read this tab
guitar tuner
edit
Autoscroll
slow
fast
+/-
esc
set tempo
stop
Author
Difficulty
Unregistered
Song: “Somewhere in My Car”
Artist: Keith Urban
Album: Fuse (2013)

Note: There are parts of this song where three different layers of guitar are used, and
in the outro there are four different layers of guitar. You will have to listen closely
to the song to decipher which guitar is which because I did not feel like taking the 
extra time to lay everything out separately; instead, I grouped everything together
according to the time of the song.


Verse – 0:33

Guitar 1: (palm mute)
E|-----------------------------------------|
B|-----------------------------------------|
G|-----------------------------------------|
D|-8-88------3-33--------------------------|
A|-6-66-(x4)-1-11-(x4)-5-55------3-33------|
E|---------------------3-33-(x4)-1-11-(x4)-|

0:46

Guitar 1: (optional... this riff is played at the end of verse 2)
E|-------------|
B|-------------|
G|-10-10-10\\\-|
D|-10-10-10\\\-|
A|--8--8--8\\\-|
E|-------------|

Chorus – 0:49

Guitar 1: repeat verse progression

Guitar 2: lead riff (pick around with the formation on the left below)[use delay]
E|----|------------------------------------------------|
B|-11-|------11----10h11----11-------11----10h11----11-|
G|-10-|---10----10-------10-------10----10-------10----|
D|--8-|-8-----------------------8----------------------|
A|----|------------------------------------------------|
E|----|------------------------------------------------|

1:05

Guitar 1: keep playing same progression

Guitar 2 (still using delay):
E|-10h11-10h11-10h11h13-13--10h11-10h11-10h11h13-13-|
B|--------------------------------------------------|
G|--------------------------------------------------|
D|--------------------------------------------------|
A|--------------------------------------------------|
E|--------------------------------------------------|

E|-10h11-10h11-10h11h15-15---------------------------|
B|---------------------------11h13-11h13-11h13-11h13-|
G|---------------------------------------------------|
D|---------------------------------------------------|
A|---------------------------------------------------|
E|---------------------------------------------------|

Guitar 3:
E|---------3---1-|
B|-8---3---3---1-|
G|-8---3---0---2-|
D|-8---3---0---3-|
A|-6---1---x---3-|
E|---------3---1-|

1:11

Guitar 3:
E|--------------------3---1-------|
B|------------8---3---3---1-------|
G|-10-10-10---8---3---0---2-------|
D|-10-10-10---8---3---0---3-------|
A|--8—-8—-8---6---1---x---3-------|
E|--------------------3---1-------|

1:13

Guitar 2: (Keith’s overpowering riff)
E|-------------------------------------------------|
B|-------------------------------------------------|
G|-------------------------------------------------|
D|-1-11-(x4)---------------------------------------|
A|-----------1-11-(x4)-----------------------------|
E|---------------------3-33-(x4)-1-11-(x3)-14/////-|

OR

E|-----------------------------------------------------|
B|-----------------------------------------------------|
G|-----------------------------------------------------|
D|-----------------------------------------------------|
A|-----------------------------------------------------|
E|-11-11-11-(x4)-6-66-(x4)-3-33-(x4)-1-11-(x3)-14/////-|

1:16

Guitar 1:
E|-------------------------------|
B|-10b11r10-6\---10b11r10-11h13\-|
G|-------------------------------|
D|-------------------------------|
A|-------------------------------|
E|-------------------------------|

Verse 2 – 1:30

Guitar 1: (palm mute and repeat until 1:51)
E|---|
B|---|
G|-3-|
D|---|
A|---|
E|---|

1:38

Guitar 2:
E|-------xxxxx-------xxxxxxxx-------------------------xxxxx-|
B|-------xxxxx-------xxxxxxxx-------------------------xxxxx-|
G|-2h3-3-xxxxx-2h3-3-xxxxxxxx-3-3p2---3-3p2---2-2h3-3-xxxxx-|
D|-------xxxxx-------xxxxxxxx-------3-------3---------xxxxx-|
A|-------xxxxx-------xxxxxxxx-------------------------xxxxx-|
E|-------xxxxx-------xxxxxxxx-------------------------xxxxx-|

E|-------xxxxxxxx-|
B|-------xxxxxxxx-|
G|-2h3-3-xxxxxxxx-|
D|-------xxxxxxxx-|
A|-------xxxxxxxx-|
E|-------xxxxxxxx-|

1:40

Guitar 3:
E|-----------|
B|-----------|
G|-5h7-------|
D|-----5-3/5-|
A|-----------|
E|-----------|

Guitar 3:
E|-------------|
B|-------------|
G|-12p10-------|
D|-------10/12-|
A|-------------|
E|-------------|

1:52

Guitar 1:
E|-------------|
B|-------------|
G|-10-10-10\\\-|
D|-10-10-10\\\-|
A|--8--8--8\\\-|
E|-------------|

Chorus 2 – 1:54

All guitars repeat chorus progressions

Solo – 2:19

Guitar 1:
E|-----------------------------------------------1-|
B|-----------------------------------------------1-|
G|-8-8---3-3-------------------8-8---3-3---------2-|
D|-8-8---3-3---5-5---3-3-3-3---8-8---3-3---5-5---3-|
A|-6-6---1-1---5-5---3-3-3-3---6-6---1-1---5-5---3-|
E|-------------3-3---1-1-1-1---------------3-3---1-|

Guitar 2: (use wah pedal)
E|-------------------------|--------------------------------|
B|-11b13--11b10h11-10p8----|-----6--------------------------|
G|----------------------10-|-6b7---7r6--3p2---3-3p2—--------|
D|-------------------------|----------------3------3\\\-----|
A|-------------------------|--------------------------------|
E|-------------------------|--------------------------------|

E|-11-11xx13x13x13--13b15-|-----------------------------|
B|-11-11xx11x11x11--------|-13b15-11—-------------------|
G|------------------------|----------12-12p10-12b15-----|
D|------------------------|-----------------------------|
A|------------------------|-----------------------------|
E|------------------------|-----------------------------|

Chorus 3 – silent until 2:42

All guitars repeat chorus progressions

Outro – 2:59

All guitars repeat chorus progressions

3:13 (be aware of the timing of each little riff)

Guitar 4:
E|-17b18r17-15-15-13b15-|-------13----|----------------------|
B|----------------------|-14b15----15-|-14r13-14r13-14r13-11-|
G|----------------------|-------------|----------------------|
D|----------------------|-------------|----------------------|
A|----------------------|-------------|----------------------|
E|----------------------|-------------|----------------------|

E|----------|------------------------------------------------|
B|----------|------------------------------------------------|
G|-10h12p10-|-------10h12-------10h12-------10h12------------|
D|----------|-10h12-------10h12-------10h12-------12p10-10-8-|
A|----------|------------------------------------------------|
E|----------|------------------------------------------------|

E|-----------------18r17-15-|-17r16-17r16-13\\\-|
B|-------------/15----------|-------------------|
G|---------/15--------------|-------------------|
D|-/15-/17------------------|-------------------|
A|--------------------------|-------------------|
E|--------------------------|-------------------|

Please comment any suggestions/criticism/praise/encouragement.

---
Ben Sheckler

Twitter: twitter.com/sheckben
Instagram: instagram.com/shecklerben

            
            
Suggest correction
Creating personal tab
Creating personal tab
You can edit any tab online and save it as your Personal.

You can edit, replace or remove any tab part or add personal notes – all changes will be seen only by you.

Personal tabs can be accessed anytime from any device, even offline.
Learn more »
Give kudos to tab author, rate the tab!
1 2 3 4 5
comments
print report bad tab
1 comment total.
0 reply
s2manauto 10 Aug 03, 2017 01:47 PM

awful

guest
Wanna post a correction for this tab? Suggest correction