Oops, an error
Loading. Please wait.

Stupid Boy Tab

version 1
version 1

Solo

Whole song

  • My tab has the correct guitar riff and is more acc... Show more

Interactive

Video

39,764 views 24 this week
11 commentsread comments
1 2 3 4 5
excellent!
x 9
add to favorites
launch autoscroll
font size
0
reset
how to read this tab
guitar tuner
Autoscroll
slow
fast
+/-
esc
set tempo
stop
Help us to improve Ultimate-Guitar.com Take our survey!
×
Author
Difficulty
Tuning
advanced
D A D G B E
Ok, this is a honkin long tab.  Might have some typo's in here
 because of that.  I put the times above so you don't get lost.

The * Means you have your volume knob all the way down while you
 pick the note, then roll it up to bring the note in

the ! means to release the bend of the note without picking it.

Drop D Tuning
====================================================================
b = Bend                                 ~= vibrato
/ = Slide up                             p= pull off
h = Hammer on                            \= slide down
pbr = pre bend and release               bh = Bend and hold
br = Bend and release                   (0) = Ghost open note
r = Release                              x = Dead note
PM = Palm Mute
====================================================================

Enjoy!

  4:03
   *        *                         4:15
e----------------------------------------------------------------------------|
B--6pbr-4~-----3brbrbrbr~--------------------4-4~---6------------------------|
G----------------------------8/3-------1h3/5----------7----8p7-7h8--8-10p7~--|
D----------------------------------------------------------------------------|
A----------------------------------------------------------------------------|
E----------------------------------------------------------------------------|

  4:29          !                       !
e----------------------------------------------------------|
B--4h6-6/8-8bh~-8r~--6br~--4h6-6/8-8bh~-8r~--8p6~----------|
G----------------------------------------------------------|
D----------------------------------------------------------|
A----------------------------------------------------------|
E----------------------------------------------------------|

   4:42
e-------6-6-6~-6h8-6--6-6-------------------------------------------------|
B--4h6/8-----------------9-8p6~~-6/8\6~~-----8h9-9/11-11h13-11-11---------|
G----------------------------------------8h10-----------------------------|
D-------------------------------------------------------------------------|
A-------------------------------------------------------------------------|
E-------------------------------------------------------------------------|

e------------13--------------------------------------------------------------|
B--13p11-13bh--13r11-11~--11h13-13/15-16~-16/18-16--16p15~-15b~-15b~~15br~~--|
G----------------------------------------------------------------------------|
D----------------------------------------------------------------------------|
A----------------------------------------------------------------------------|
E----------------------------------------------------------------------------|

e----------------------------------------------------16b--16br~---------|
B----15h16-16-16--15-16p15-18b-18bh-18r-18--16-16h18--------------------|
G--17-------------------------------------------------------------------|
D-----------------------------------------------------------------------|
A-----------------------------------------------------------------------|
E-----------------------------------------------------------------------|

  5:11

e--16b~~-16b-16-15-13h15-15brbr-13~--13-15--------------------------------|
B--x--------------------------------------16p15p13--16p15p13--------------|
G-(0)---------------------------------------------15--------15-15/17------|
D-------------------------------------------------------------------------|
A-------------------------------------------------------------------------|
E-------------------------------------------------------------------------|

  5:18
e-----------------------------------------------------------------|
B-----18b-18b~-18b~-18br~~-18-18b-18b-18-16-18-18br-18br-18-18\---|
G--17-------------------------------------------------------------|
D-----------------------------------------------------------------|
A-----------------------------------------------------------------|
E-----------------------------------------------------------------|

 5:22
e--11-11--13p11--11-15p11-16p11-15p11-13p11--13p11---15p11--11-15p11-|
B-------11-----11--------------------------11------11-----11---------|
G--------------------------------------------------------------------|
D--------------------------------------------------------------------|
A--------------------------------------------------------------------|
E--------------------------------------------------------------------|

e--16p11-15p11--11--13p11--15p11--11-18p11-16p11-15p11-------------|
B-------------11--11-----11-----11---------------------------------|
G------------------------------------------------------------------|
D------------------------------------------------------------------|
A------------------------------------------------------------------|
E------------------------------------------------------------------|

            REPEAT THIS 3 TIMES
e|----11--13p11--15p11--11-15p11-16p11-15p11--------------------------|
B|o-11--11-----11-----11----------------------------------------------|o
G|--------------------------------------------------------------------|
D|--------------------------------------------------------------------|
A|o-------------------------------------------------------------------|o
E|--------------------------------------------------------------------|

 5:33
  Repeat maybe 6 times?
e|-------------------------------------|
B|----15h16--15h16--------------------o|
G|--15-----15--------------------------|
D|--PM-----Pm--------------------------|
A|------------------------------------o|
E|-------------------------------------|

  5:36                                   Release bend while picking. pick 16
                                         many times while bent.
e--16b-16b-16b-16b-16b-16b-16b-16b-16bh-16r-16r-16r-16r-16r-16r-16r--|
B------x---x---x----x--x---x---x---------x--x---x----x---x--x---x----|
G------(0)-(0)-(0)-----(0)-------------------------------------------|
D--------------------------------------------------------------------|
A--------------------------------------------------------------------|
E--------------------------------------------------------------------|

e--15b-15br-15~-15p13-----------------------------|
B--------------------16h18-18b-18bh-18r16-18~-----|
G-------------------------------------------------|
D-------------------------------------------------|
A-------------------------------------------------|
E--------------------------------------------20\--|


5:49

e-----------------------------------------------------------------------------|
B-----------------------------------------------------------------------------|
G-----8--3---x-3--5br-3p0-3-----------------8--3--------3~-1-3p1p0-1----------|
D--6--8--3---x-3----------3-----1-3-1----6--8--3------3-----------3----3b-1~--|
A--6--6--1---x-1----------1--1-3------1--6--6--1--1-3----------------1------1-|
E--6-------------------------------------6------------------------------------|

e--------------------------------------------------------|
B------------------------6--------------Fade out..-------|
G-----8--3--------3---5bh-5r3----------------------------|
D--6--8--3----3h5---5---------3-1------------------------|
A--6--6--1------------------------3br-1------------------|
E--6-----------------------------------------------------|
Suggest correction
comments
print report bad tab
11 comments total. Showing first comments.
0 reply
parkerguitars24 72 wrote on April 13 2008, 09:39 am

Perfect dude.

+1 reply
mokmok111 74 wrote on October 11 2008, 06:05 pm

"Honkin long. " lol I like that. Ill have to remember it.

5*

+1 reply
court 10 wrote on January 3 2009, 06:21 pm

couldn't find a perfecter tab

guest
You may want to rate the tab now too:
select rating
Please do not post tabs as comments. Select "correction" instead!