Oops, an error
Loading. Please wait.

Stupid Boy tab

version 3
version 3

Whole song

  • My tab has the correct guitar riff and is more acc... Show more

Interactive

Video

256 views 1 this week
1 commentread comment
1 2 3 4 5
2 more votes to show rating
add to favorites
×
Save as Personal and add changes to this tab that will be seen only by you. Learn more ›
×
You can save this tab as Personal to edit and correct it or add notes. All changes will be seen only by you. Learn more »
launch autoscroll
font size
0
reset
how to read this tab
guitar tuner
edit
Autoscroll
slow
fast
+/-
esc
set tempo
stop
About this tab version
My tab has the correct guitar riff and is more accurate and complete than the other tabs for this song. Was this info helpful? Yes No
STUPID BOY
CAPO 1ST

e|-----------------------------------------------------------------------------------|
B|--3----3-x--3--------------------------3----3-x--3---------------------------------|
G|--2/4--4-x--2--2-0-----2-x-x-2---------2/4--4-x--2--2-0----------2-x---------------|
D|-------------------4---2-x-x-2----2-0--------------------4-2-0---2-x--2/4/2--2-2-0-|
A|--------------------------------0--------------------------------------------------|
E|-----------------------------------------------------------------------------------|

G            D               A
WELL SHE WAS PRECIOUS LIKE A FLOWER
         G     D        A
SHE GREW WILD, WILD BUT INNOCENT
  G       D                     A
A PERFECT PRAYER IN A DESPERATE HOUR
        G          D             A   A2  A
SHE WAS EVERYTHING BEAUTIFUL AND DIFFERENT

       G D  A    
STUPID BOY, YOU CAN’T FENCE THAT IN
       G D            A
STUPID BOY, IT’S LIKE HOLDING BACK THE WIND
    G                  D                  A
SHE LAID HER HEART AND SOUL RIGHT IN YOUR HANDS
        G               D                         A
AND YOU STOLE HER EVERY DREAM AND YOU CRUSHED HER PLANS

A         G             D
SHE NEVER EVEN KNEW SHE HAD A CHOICE
    Bm                  A             G      
AND THAT’S WHAT HAPPENS WHEN THE ONLY VOICE
             D               A  A2  A
SHE HEARS IS TELLING HER SHE CAN’T
       G D   A      
STUPID BOY
          G D  A    
OH STUPID BOY

G                 D               A
SO WHAT MAKES YOU THINK YOU COULD TAKE A LIFE
           G           D       A  A2  A
AND JUST PUSH IT, PUSH IT AROUND
G                   D       A
I GUESS TO BUILD YOURSELF UP SO HIGH
           G            D           A  A2  A
YOU HAD TO TAKE HER AND BREAK HER DOWN

    G                  D                  A
SHE LAID HER HEART AND SOUL RIGHT IN YOUR HANDS
        G               D                         A
AND YOU STOLE HER EVERY DREAM AND YOU CRUSHED HER PLANS

A         G             D
SHE NEVER EVEN KNEW SHE HAD A CHOICE
    Bm                  A             G      
AND THAT’S WHAT HAPPENS WHEN THE ONLY VOICE
             D               A  
SHE HEARS IS TELLING HER SHE CAN’T
           G                
YOU STUPID BOY

Bm    A
OH OH YOU ALWAYS HAD TO BE RIGHT
               G             D               A                 G  Bm  A  A2  A
AND NOW YOU’VE LOST THE ONLY THING THAT EVER MADE YOU FEEL ALI-I-IVE
              G  Bm   A              
OH YOU STUPID BOY

GUITAR SOLO

    G                  D                  A
SHE LAID HER HEART AND SOUL RIGHT IN YOUR HANDS
        G               D                         A
AND YOU STOLE HER EVERY DREAM AND YOU CRUSHED HER PLANS

          G             D
SHE NEVER EVEN KNEW SHE HAD A CHOICE
    Bm                  A             G      
AND THAT’S WHAT HAPPENS WHEN THE ONLY VOICE
             D               A  
SHE HEARS IS TELLING HER SHE CAN’T
           G  D  A
YOU STUPID BOY

e|-----------------------------------------------------------------------------------|
B|--3----3-x--3--------------------------3----3-x--3---------------------------------|
G|--2/4--4-x--2--2-0-----2-x-x-2---------2/4--4-x--2--2-0----------2-x---------------|
D|-------------------4---2-x-x-2----2-0--------------------4-2-0---2-x--2/4/2--2-2-0-|
A|--------------------------------0--------------------------------------------------|
E|-----------------------------------------------------------------------------------|

A                                    G  D  A
OH I’M THE SAME OLD, SAME OLD STUPID BOY   OH OH
G         D                       A
IT TOOK A WHILE FOR HER TO FIGURE OUT THAT SHE COULD RUN
             G       D   A
BUT WHEN SHE DID SHE WAS LONG GONE, LONG GONE

e|-----------------------------------------------------------------------------------|
B|--3----3-x--3--------------------------3----3-x--3---------------------------------|
G|--2/4--4-x--2--2-0-----2-x-x-2---------2/4--4-x--2--2-0----------2-x---------------|
D|-------------------4---2-x-x-2----2-0--------------------4-2-0---2-x--2/4/2--2-2-0-|
A|--------------------------------0--------------------------------------------------|
E|-----------------------------------------------------------------------------------|

  solo part
e|------------------------------|-------------------------------------------------|
B|------------------------------|-------4-4--6-3~--3/4--6-3~--4-6/8--8br--8--6br--|
G|--10br-8-7b~~~~/8--8/3--3-5-3-|-3-3-5-------------------------------------------|
D|------------------------------|-------------------------------------------------|
A|------------------------------|-------------------------------------------------|
E|------------------------------|-------------------------------------------------|

e|-------------------------------------------6--6-6-6-6h8-6--6-6-6--------6-6-8-6-|
B|--4-6/8--8br--8--6-8-6--6-6-6-6/4--4-4-6/8-----------------------9-8-6----------|
G|--------------------------------------------------------------------------------|
D|--------------------------------------------------------------------------------|
A|--------------------------------------------------------------------------------|
E|--------------------------------------------------------------------------------|

e|----------------------------------------------------13b-------------|
B|--6-6/4--4-6/8/11--11-11-11/13-11--11-13-11--11-13b-----13r-11------|
G|--------------------------------------------------------------------|
D|--------------------------------------------------------------------|
A|--------------------------------------------------------------------|
E|--------------------------------------------------------------------|

e|-----------------------------------------------------------------------------------|
B|--3----3-x--3--------------------------3----3-x--3---------------------------------|
G|--2/4--4-x--2--2-0-----2-x-x-2---------2/4--4-x--2--2-0----------2-x---------------|
D|-------------------4---2-x-x-2----2-0--------------------4-2-0---2-x--2/4/2--2-2-0-|
A|--------------------------------0--------------------------------------------------|
E|-----------------------------------------------------------------------------------|
Suggest correction
Creating personal tab
Creating personal tab
You can edit any tab online and save it as your Personal.

You can edit, replace or remove any tab part or add personal notes – all changes will be seen only by you.

Personal tabs can be accessed anytime from any device, even offline.
Learn more »
Give kudos to tab author, rate the tab!
1 2 3 4 5
comments
print report bad tab
1 comment total.
0 reply
clowns1564 126 Mar 31, 2016 07:43 AM

The riff you have written is too simplistic compared to how he is actually playing it. Some spots are wrong.

guest
You may want to rate the tab now too:
select rating
Wanna post a correction for this tab? Suggest correction