Oops, an error
Loading. Please wait.

Til Summer Comes Around Tab

version 1
version 1

Whole song

15,253 views 3 this week
1 commentread comment
1 2 3 4 5
1 last vote to show rating
add to favorites
launch autoscroll
font size
0
reset
how to read this tab
guitar tuner
×
Best way to learn
"Til Summer Comes Around"
Autoscroll
slow
fast
+/-
esc
set tempo
stop
Difficulty
novice
Standard Tuning.
No Capo.
This is the intro and its pretty easy.
Use this intro tab with the chord tab on this site to get the whole song :)

/ = slide

E-----------------------------------|
B-0h1--0h1--0h1--0h1--5--3--1/3-----|
G-----------------------------------|
D-----------------------------------|
A-----------------------------------|
E-----------------------------------|

any comments or corrections message me at bulldawgfan07@yahoo.com
Suggest correction
Give kudos to tab author, rate the tab!
1 2 3 4 5
comments
print report bad tab
1 comment total.
0 reply
the_cw 42 Mar 05, 2010 12:05 PM

E---------------------0---------12----| harmonics at the end
B-----------------------1/3-----12----|
G-0h2--0h2--0h2--0h2------------12----|
D-0h2--0h2--0h2--0h2------------12----|
A-------------------------------------|
E-------------------------------------|

E---------------------0-------------------|
B-----------------------1/3---------------|
G-0h2--0h2--0h2--0h2----------------------|
D-0h2--0h2--0h2--0h2----------------------|
A-----------------------------------------|
E----------------------------5/12---------|

This is based on the Am chord. idk about ur version but this is the way but this is how i do it.

guest
You may want to rate the tab now too:
select rating
Wanna post a correction for this tab? Suggest correction