Oops, an error
Loading. Please wait.

Til Summer Comes Around Tab

version 4
version 4

Whole song

3,226 views 1 this week
no commentswrite comment
1 2 3 4 5
please rate
add to favorites
launch autoscroll
font size
0
reset
how to read this tab
guitar tuner
Autoscroll
slow
fast
+/-
esc
set tempo
stop
Help us to improve Ultimate-Guitar.com Take our survey!
×
Author
Til Summer Comes Around     Keith Urban

Tuning:  Standard
I think this tab is a little closer.
Guitar has a little delay effect on it.

E|---------------------------0-----------------------------------|
B|---0h1----0h1--0h1----0h1----1--1/3--------13p12---------------|
G|---0h2----0h2--0h2----0h2-------2/4-----12--------12/14--------|
D|----------------------------------------12--------12/14--------|
A|---------------------------------------------------------------|
E|---------------------------------------------------------------|

                                            +   +   +  +
e|---------------------------0-----------------------------------|
B|---0h1----0h1--0h1----0h1----1--1/3------12--------------------|
G|---0h2----0h2--0h2----0h2-------2/4--------------12------------|
D|----------------------------------------------7------12--------|
A|---------------------------------------------------------------|
E|---------------------------------------------------------------|


e|---------------------------0-----------------------------------|
B|---0h1----0h1--0h1----0h1----1--1/3----------------------------|
G|---0h2----0h2--0h2----0h2-------2/4------0h1h2/5---------------|
D|---------------------------------------------------------------|
A|---------------------------------------------------------------|
E|---------------------------------------------------------------|


************************************

| /   slide up
| \   slide down
| h   hammer-on
| p   pull-off
| ~   vibrato
| +   harmonic
| x   Mute note
| b   Bend
| pb  Pre-bend
| br  Bend release
| pbr Pre-bend release
| brb Bend release bend

**********************************
Suggest correction
Give kudos to tab author, rate the tab!
1 2 3 4 5
comments
print report bad tab
guest
You may want to rate the tab now too:
select rating
Wanna post a correction for this tab? Suggest correction