Oops, an error
Loading. Please wait.

Til Summer Comes Around Tab

version 1
version 1

Solo

Whole song

20,712 views 6 this week
3 commentsread comments
1 2 3 4 5
accurate
x 5
add to favorites
launch autoscroll
font size
0
reset
how to read this tab
guitar tuner
Autoscroll
slow
fast
+/-
esc
set tempo
stop
Help us to improve Ultimate-Guitar.com Take our survey!
×
Author
Difficulty
intermediate
'Til Summer Comes Around by Keith Urban. My first tab, not sure if it's 100% 
correct, but I think it's pretty close.
Tuning: standard

b=bend
r=release
h=hammer on
p=pull off
/=slide up
\=slide down
~=vibrato


e|---------------------------------------------------------|
B|-15b17------15--13\12---------12h13----------------------|
G|---------------------14~~~-14------14--12-12-12-12-12~---|
D|---------------------------------------------------------|
A|---------------------------------------------------------|
E|---------------------------------------------------------|

e|---------------------------------------------------------|
B|--------------------------------------5----------5-------|
G|-11/12--12-12-12-12-12\7--5h7-7---5h7--------5h7---------|
D|----------------------------------------7----------7-----|
A|---------------------------------------------------------|
E|---------------------------------------------------------|

e--------------------------15--15--------------------------|
B-------8---8/12-13-15b17-(17)(17)-r15--13-15\10~~---------|
G-5h7/9---9------------------------------------------------|
D----------------------------------------------------------|
A----------------------------------------------------------|
E----------------------------------------------------------|

That's it.
Suggest correction
comments
print report bad tab
3 comments total.
+1 reply
Divegirl 10 wrote on January 18 2010, 12:32 pm

Makes NO sense. Sorry, but I can't understand it at all. :(

0 reply
FenderJ90 16 wrote on January 20 2010, 10:06 pm

Just looked over this again, needs some work. I'll have a revised solo up soon

+2 reply
stryder1017 1,874 wrote on June 9 2010, 05:06 pm

i just played it and it sounds pretty good, great actually. Who cares if it's not note for note, just make up some of your own stuff

guest
You may want to rate the tab now too:
select rating
Please do not post tabs as comments. Select "correction" instead!