Oops, an error
Loading. Please wait.

Tonight I Wanna Cry Tab

version 1
version 1

Whole song

20,529 views 3 this week
1 commentread comment
1 2 3 4 5
x 9
add to favorites
launch autoscroll
font size
0
reset
how to read this tab
guitar tuner
Autoscroll
slow
fast
+/-
esc
set tempo
stop
Help us to improve Ultimate-Guitar.com Take our survey!
×
Author
-------------------------------------------------------------------------------
                             TONIGHT I WANNA CRY - Keith Urban
-------------------------------------------------------------------------------

This is the intro to the song (the piano part) played in all harmonics. It sounds really 
when you play it with the song. I was messing with harmonics one day and I figured out 
to play this song! :)
Enjoy!

Tuning: Standard (EBGDAE)

(THIS IS ALL PLAYED IN HARMONICS!)
e|---------------------------|
B|----------12------12-------|
G|-----12--------12----------|
D|--12----7----7-------12----|  (REPEAT)
A|------------------------7--|
E|---------------------------|
Suggest correction
comments
print report bad tab
1 comment total.
0 reply
mokmok111 74 Dec 19, 2007 06:17 PM

1 thing at the end of the tab put a 12 on the d string

guest
You may want to rate the tab now too:
select rating
Wanna post a correction for this tab? Suggest correction