Oops, an error
Loading. Please wait.

Tonight I Wanna Cry Tab

version 2
version 2

Whole song

2,068 views 1 this week
no commentswrite comment
1 2 3 4 5
please rate
add to favorites
launch autoscroll
font size
0
reset
how to read this tab
guitar tuner
Tab Pro tools
  • play this tab
  • loop segment
  • change instrument
  • show fretboard
  • metronome
×
Best way to learn
"Tonight I Wanna Cry"
Autoscroll
slow
fast
+/-
esc
set tempo
stop
Contributor
Difficulty
Tuning
novice
D G D G B D
intro:



E|-------------------------------0----------| 2X
B|-------------------0-------------1---1----|
G|-----0-2-4-2---2-4---0-------0-----0------|
D|---0---------0---------0---2--------------|
A|-------------------------3----------------|
E|-3----------------------------------------|


1ST AND 2ND VERSE:
E|-------------------------------0-------|
B|-------------------0-------------1---1-|
G|-----0-2-4-2---2-4---0-------0-----0---|
D|---0---------0---------0---2-----------|
A|-------------------------3-------------|
E|-3-------------------------------------|

E|---------------------------------2-----|
B|-----------0-------0---------------3---|
G|-----0-2-4-------0---2---0-----4-------|
D|---2-----------0-------0---4---------0-|
A|-3---------------------------2---------|
E|-------------3-------------------------|

E|-------0-----------------------0-------|
B|---------1---1-----------0-------0---0-|
G|-----0-----0-------0-2-4-----------2---|
D|---2-------------2-----------2---------|
A|-3-------------3-----------------------|
E|---------------------------0-----------|


E|---------2---------------0-------0-----|
B|-----------3---3-----------1---1---1---|
G|-------4-----4---------------2-------2-|
D|---4-------------------2---------------|
A|-----2---------------2-----------------|
E|-0---------------2-0-------------------|

E|---0---------0-------------2-------0---|
B|-1-------------1-----1---3---3---3-----|
G|-----------0-----0-----2-------2-------|
D|-----0---2---------0-------------------|
A|-------3-------------------------------|
E|-------------------------------------0-|

CHORUS:

E|-------------0-------------------------|
B|---------------1---1-------0-----------|
G|-----------0-----0-------0---2---0---2-|
D|-2---0---2-------------0-------0---0---|
A|---2---3-------------------------------|
E|---------------------3-----------------|

E|-2-------0---------------0-------------|
B|---3---3-------------------1---1-------|
G|-----2-----------------0-----0-------0-|
D|-------------2---0---2-------------0---|
A|---------------2---3-------------------|
E|-----------0---------------------3-----|

E|-------------2-------0-----------------|
B|-0-------------3---3-------------------|
G|---2---0---2-----2---------0-----------|
D|-----0---0-------------------0---0---4-|
A|-------------------------2-----2-------|
E|-----------------------0-----------0---|

E|-----2-------------0-------------2-----|
B|-------3-------------1---1---------3---|
G|---------4-------0-----0-------4-----4-|
D|---4-------0---2-----------4-----------|
A|-2-----------3---------------2---------|
E|---------------------------------------|

E|---------0---------------0-------------|
B|-----------1---1-----------1---1-------|
G|-------2-----2---------0-----0---------|
D|-----2-----------0---2-----------------|
A|-2-0---------------3-------------------|
E|---------------------------------------|

REPEAT INTRO

tsaka niyo nalng po pakinggan yung timing, soft po at medyo mahinhin ang kanyang pagkanta.
comments
We did not receive enough feedback on this tab! Please rate:
print report bad tab
1 2 3 4 5
I want to post or [tab]
guest
You may want to rate the tab now too:
select rating
Please do not post tabs as comments. Select "correction" instead!