Oops, an error
Loading. Please wait.

Who Wouldnt Wanna Be Me Tab

version 1
version 1

Whole song

35,159 views 33 this week
1 commentread comment
1 2 3 4 5
accurate
x 12
add to favorites
launch autoscroll
font size
0
reset
how to read this tab
guitar tuner
Autoscroll
slow
fast
+/-
esc
set tempo
stop
Help us to improve Ultimate-Guitar.com Take our survey!
×
Author
Difficulty
gtr-boy 880
intermediate
Ok so this a really fun song to play exspeically the intro. so keep ur guitar in
tuning and then drop d. Dont drop d before u start the intro

Intro;
  *
E----------------------------------------------------------8------7-5------|
B-------------------------------------------------------8bh-8r-6--8-6b-----|
G---------------------------------------------------------------7----------|
D--------------3p2p0---------3p2p0---------3p2p0---------------------------|
A-------------------0-3-3/5-------0-3/5-3-------0-3-3h5--------------------|
E--0\D-----------------------------------------------------------------12\-|

                               play aggressively
E---------------------------x-x-x-10-x-10-x-10-x-10-x-10-x-10-x-10-10-10----|
B---------------------------x-x-x-10-x-10-x-10-x-10-x-10-x-10-x-10-10-10----|
G---------------------------x-x-x-10-x-10-x-10-x-10-x-10-x-10-x-10-10-10----|
D-3p2p0---------3p2p0-------x-x-x-10-x-10-x-10-x-10-x-10-x-10-x-10-10-10----|
A-------0-3-3/5------0-3/5-3/-----------------------------------------------|
D-----------------------------------------------------------------------12\-|

    mess with volume
E--------------------------5-7-7b~~~~~\---|
B-----------------------5/7---------------|
G--2--------------------------------------|
D--0--------------------------------------|
A--0--------------------------------------|
D--0--------------------------------------|


Verse 1: (all D)
I got no money in my pockets
I got a hole in my jeans
I had a job and I lost it
But it won't get to me
Cause I'm ridin' with my baby
And it's a brand new day
We're on the wheels of an angel
Flyin' away

Chorus:
        D                        Em7
And the sun is shining, and this road keeps winding
             G
Through the prettiest country
                      D
From Georgia to Tennessee
              D
And I got the one I love beside me
        Em7
My troubles behind me
     G
I'm alive and I'm free
                      D
Who wouldn't wanna be me

Verse 2: (all D)
Now she's strumming on my 6-string
Across her pretty knees
She's stompin' out a rhythm
And singing to me the sweetest song

Instrumental:  D  Em7  G  D


CHORUS

D                           Em7  D  G
I got no money in my pockets
D                       Em7  D  G
I got a hole in my jeans
      D                     Em7  D         G
We're on the wheels of an angel,  and I'm free
D                            Em7       D                    G
She's strumming on my 6-string, it's across her pretty knees
D                           Em7    D         G
She's stompin' out a rhythm,  and singing to me

D  Em7  D  G


Chords in E tuning: (the song is in Drop D though)
D   =   xx0232
G   =   320003
Em7  =  020000 or 022030

Chords in Drop D tuning:
D   =   000232
G   =   500003 or 5x0003
Em7 =   220000 or 220030 or x22030 or x22033
Suggest correction new What's this?
You can suggest a correction to this tab. Community and Mods will review your correction and vote to approve or reject it.
comments
print report bad tab
1 comment total.
0 reply
XxGibsonSGxX 4,028 wrote on January 29 2007, 10:13 pm

Holy, nice man!!!

guest
You may want to rate the tab now too:
select rating
Please do not post tabs as comments. Select "correction" instead!