Oops, an error
Loading. Please wait.

Who Wouldnt Wanna Be Me Tab

version 2
version 2

Whole song

9,042 views 1 this week
2 commentsread comments
1 2 3 4 5
accurate
x 4
add to favorites
launch autoscroll
font size
0
reset
how to read this tab
guitar tuner
Autoscroll
slow
fast
+/-
esc
set tempo
stop
Help us to improve Ultimate-Guitar.com Take our survey!
×
Author
Difficulty
intermediate

Who Wouldn’t Wanna Be Me
Keith Urban
Drop D

Intro
------------------------------------------------------|
------------------------------------------------------|
----------—-------------------------------------------|
------3p2p0----------3p2p0--------3p2p0---------------|
------------0-3-3/5-------0-3/5-3-------0-3-3h5-------|
-0/D--------------------------------------------------|

-----8--------7--5----------------------------------------|
-8bh---8r-6---8—-6b---------------------------------------|
----------—-7---------------------------------------------|
--------------------------3p2p0---------3p2p0-------------|
-------------------------------0-3-3/5--------0-3-3/5-----|
---------------------12/0---------------------------------|


-x-10-x-10-x-10-x-10-10-10--------------------------5-7-7bh~~~|
-x-10-x-10-x-10-x-10-10-10----------------------5/7-----------|
-x-10-x-10-x-10-x-10-10-10—------2----------------------------|
-x-10-x-10-x-10-x-10-10-10-------0----------------------------|
-x-------------------------------0----------------------------|
-x-------------------------12/0--0----------------------------|


Intro/Verse Chords
-2----2----2----2----2----------|
-3----3----3----3----3----------|
-0h2--2----0h2--2-—--2----------|
-0----0----0----0----0----------|
--------------------------------|
--------------------------------|

Chorus
D	Em7	G	D
Sun	Road	Pretty	Tenn

-----------------------------------|
-----------------------------------|
--11p9p7--9(11)-(11)-(11)-(11)—9p7-|
-----------------slow release------|
----(echoed)-----------------------|
-----------------------------------|


Verse 2
-----------------------------------------------|
--7-7-7-7--5-5-5--7--8-8-8-8--7-7-7-7--5-------|
--7-7-7-7--7-7-7--7--7—7-7-7--7-7-7-7--7-7-----|
-----------------------------------------------|
-----------------------------------------------|
-----------------------------------------------|

-----------------------------------------------|
--7-7-7-7--5-5--7-7--3-3-3-3--3-3-3-3-3--0-----|
--7-7-7-7--7-7--7-7--5-5-5-5--4-4-4-4-4--2-----|
-----------------------------------------------|
-----------------------------------------------|
-----------------------------------------------|

-----------------------------------------------|
--7-7-7-7--5-5-5--7--8-8-8-8--7-7-7-7--5-------|
--7-7-7-7--7-7-7--7--7—7-7-7--7-7-7-7--7-7-----|
-----------------------------------------------|
-----------------------------------------------|
-----------------------------------------------|

-------------------------------|
--7-7-7-7--5-5-5-5-5-5-5-5-5---|
--7-7-7-7--7-7-7-7-7-7-7-7-7---|
-------------------------------|
-------------------------------|
-------------------------------|


1:45
--------------------------------------------|
--------------------------------------------|
--------------------------------------------|
--------------------------------------------|
-x-x---b-r----b-r----b-r----b-r-------------|
-0-0--2(3)2--2(3)2--2(3)2--2(3)2-3p2-0------|

1:49
----------------|
----------------|
----------------|
-----0----------|
-3-4-------0----|
-------5-6------|

1:53
---------------------------------------|
-12p10p12------------------------------|
-----------11p9p11-9-9(11)9-7----------|
---------------------------------------|
---------------------------------------|
---------------------------------------|

2nd Chorus Fill
-----5----------------------------------|
--/7---5-3------------------------------|
-----------4-2-0------------------------|
------------------2-2-3p2p0-0-----------|
----------------------------------------|
----------------------------------------|

Chorus/Solo
D	Em7	G	D
Sun	Road	Pretty	Tenn.


Solo
----5----5----5----5-------------------------------------------------|
-5b---5b---5b---5b---5b-5b-5b-5b-5-5-5-5-3—-5b-5---------------------|
-------------------------------------------4-----4p2p0---------------|
-------------------------------------------------------4p2p0---------|
---------------------------------------------------------------------|
-------------------------------------------------------------3br~~---|

-----------------------------3---5----15-17b-17~-|
-------3-------2--------3-1/3-5/7-7/17-----------|
-----2b-2r-0-2b-2r-0-2/4-------------------------|
----0--------------------------------------------|
-0h2---------------------------------------------|
-------------------------------------------------|

-7/10p9p8p7/5--3-------------------------|
-------------3—-6b-3---------------------|
---------------------5--2----------------|
--------------------------5-3------------|
-----------------------------5-3-0-------|
-----------------------------------0-----|

3rd Chorus Fills
2:42		  2:45			2:54	    3:10
-----5----------|-------10-----------|-----------|-------------------|
-5(7)-(7)5------|-10(12)—(12)10(12)--|-----------|-------------------|
-----------4----|--------------------|-----------|-11p9p7-9(11)------|
----------------|--------------------|-----------|-------------------|
----------------|--------------------|-3-2-0-----|-------------------|
----------------|--------------------|-------3-0-|---------------/12-|

3:25		    3:33
------------------|-----------------------------------|
-8-7-5-3-5--5-7-3-|------3----------------------------|
------------------|-2(4)—-(4)2(4)2-----2--------------|
------------------|----------------2(4)—(4)2-2-2p0-0--|
------------------|-----------------------------------|
------------------|-----------------------------------|

3:41				    3:45
---------------------------------|-------------------------------|
---------------------------------|-------------------------------|
---------------------------------|-------------------------------|
---------------------------------|-------------------------0-----|
---------------------------------|-------------------------------|
---2(3)--2(3)--2(3)--2(3)-3p2p0--|-0/12/0--0-0-2(3)-2(3)-0---3/--|

------------------|
------------------|
--------2---------|
-2-0-2/4—-2(3)2-0-|
------------------|
------------------|
Suggest correction
comments
print report bad tab
2 comments total.
0 reply
Shredtactic 30 wrote on June 3 2009, 10:00 pm

This is the same as the other one

0 reply
desertsniper11 44 wrote on June 26 2016, 11:03 pm

Lmfao^

Lmfao^

Lmfao^

guest
You may want to rate the tab now too:
select rating
Please do not post tabs as comments. Select "correction" instead!