Oops, an error
Loading. Please wait.

Who Wouldnt Wanna Be Me tab

version 3
version 3

Whole song

375 views 1 this week
no commentswrite comment
1 2 3 4 5
3 more votes to show rating
add to favorites
×
Save as Personal and add changes to this tab that will be seen only by you. Learn more ›
×
You can save this tab as Personal to edit and correct it or add notes. All changes will be seen only by you. Learn more »
launch autoscroll
font size
0
reset
how to read this tab
guitar tuner
edit
Autoscroll
slow
fast
+/-
esc
set tempo
stop
Intro
e|---------------------------------------------------------------------------|
B|---------------------------------------------------------------------------|
G|---------------------------------------------------------------------------|
D|---------------------------------------------------------------------------|
A|---------------------------------------------------------------------------|
E|---0-detune to D-----------------------------------------------------------|

e|--------------------------------------------------------------------------8-------------0--------|
B|---------------------------------------------------------------------8b10---10pbr8-6----6--------|
G|-------------------------------------------------------------------------------------------------|
D|---3p2p0------------------3p2p0------------------3p2p0-------------------------------------------|
A|---------3p0-3--3h5~------------3p0-3~---3-------------3p0-3--3h5----------------------------x\--|
D|---------------------------------------------------------------------------------------------x\--|

e|-------------------------------------------------x-10---x-10---x-10--x-10--x-10--x-10-x-10------------|
B|-------------------------------------------------x-10---x-10---x-10--x-10--x-10--x-10-x-10------------|
G|-------------------------------------------------x-10---x-10---x-10--x-10--x-10--x-10-x-10------------|
D|---3p2p0------------------3p2p0------------------x-10---x-10---x-10--x-10--x-10--x-10-x-10------0-----|
A|---------3p0-3--3h5~------------3p0-3~---3---------------------------------------------------x\-0-----|
D|---------------------------------------------------------------------------------------------x\-0-----|

e|------------------------------------|
B|------------------------------------|
G|------/11----14-16-16b17------------|
D|------------------------------------|
A|------------------------------------|
D|------------------------------------|

Verse first half no guitar then fade in d chord feedback

0:48
e|--------------------------------------------------------------------------------------------------------|
B|--------------------------------------------------------------------------------------------------------|
G|--11-x-11-x-9--x-x-9-11--x-12-x-12-x-11---x-x-11-9--x-x-11-x-11-x-9--x-x-9-11---5-x-5-x-4-x-x-4-2--x-x--|
D|--------------------------------------------------------------------------------------------------------|
A|--------------------------------------------------------------------------------------------------------|
D|--------------------------------------------------------------------------------------------------------|

e|----------------------------------------------------------------------------------------------|
B|----------------------------------------------------------------------------------------------|
G|--11-x-11-x-9--x-x-9-11--x-12-x-12-x-11--x-x-11-9--x-x-11-x-11-x-9--x-x-9--9-9-9-9-9-7-7------|
D|----------------------------------------------------------------------------------------------|
A|-------------------------------------------------------------------------------7-7-7-5-5------|
D|----------------------------------------------------------------------------------------------|

Chorus
e|-------------0--2------------------0--2-------------------0--2------------------0-------|
B|--------3--------------------3-----------------------3---------------------3-------3----|
G|-----2----2---------------2----2------------------0----0----------------0----0----------|
D|--0-------------------0-----------------------2---------------------2-------------------|
A|----------------------------------------------------------------------------------------|
D|----------------------------------------------------------------------------------------|

e|----------------3----------------------3------------------------------------------------|
B|----------3--------3-------------3--------3-----------3----5-/7-----------3----5--/7----|
G|-------0----0-----------------0----0---------------2----2--------------2----2-----------|
D|---5----------------------5---------------------0-------------------0-------------------|
A|----------------------------------------------------------------------------------------|
D|----------------------------------------------------------------------------------------|

e|-------------0---------------------0--2-------------------0--2--------------------------|
B|--------3-------3------------3-----------------------3----------------------------3-----|
G|-----2----2---------------2----2------------------0----0----------------0---------0-----|
D|--0-------------------0-----------------------2---------------------2------0-1-2--------|
A|----------------------------------------------------------------------------------------|
D|----------------------------------------------------------------------------------------|

e|--------------3------------5------------------------------0-----------------------------|
B|---------3--------3---------------------------------------3-----------------------------|
G|------0----0-----------0----------------------------------2-----------------------------|
D|---5------------------------------------------------------0-----------------------------|
A|----------------------------------------------------------------------------------------|
D|----------------------------------------------------------------------------------------|

e|------------------------------------------------------------------------------------------------------|
B|------------------------------------------------------------------------------------------------------|
G|----11p9p7--9b11------(echo)------------pb11-pb11---pb11-pb11---pb11--pbr10--pbr10-pbr9----9b11r9-7---|
D|------------------------------------------------------------------------------------------------------|
A|------------------------------------------------------------------------------------------------------|
D|------------------------------------------------------------------------------------------------------|

Second Verse (same part played as 0:48 with this extra guitar track over it)
e|---------------------------------------------------------------------------------|
B|---------------------------------------------------------------------------------|
G|---------------------------------------------------------------------------------|
D|---------------------------------------------------------------------------------|
A|---------------------------------------------------------------------------------|
D|----------------------------------------------------------2~-2~-2~-2~-2~-0-------|

e|-----------------------------------------------------------10p7-----------------------------------|
B|----------------------------------------------------------------10p7------------------------------|
G|---------------------------------------------------------------------9~---7----9b11--9---7--------|
D|----------------------------------------------------------------------------9--------------9-7----|
A|---------------------------3-4-5---------------------------------------------------------------9--|
D|-----------------------------------5-6-7----------------------------------------------------------|

Chorus
e|-------------0--2------------------0--2-------------------0--2------------------0-------|
B|--------3--------------------3-----------------------3---------------------3-------3----|
G|-----2----2---------------2----2------------------0----0----------------0----0----------|
D|--0-------------------0-----------------------2---------------------2-------------------|
A|----------------------------------------------------------------------------------------|
D|----------------------------------------------------------------------------------------|

e|----------------3---------------------3----------------------------------------------------------------|
B|----------3--------3------------3--------3------------10----10----10----10----10----10-----------------|
G|-------0----0----------------0----0--------------/11-----9-----7---------------------------------------|
D|---5---------------------5-------------------------------------------9-----7---------------------------|
A|---------------------------------------------------------------------------------10-----9~--7-5--7p5---|
D|-----------------------------------------------------------------------------------------------------7-|

e|------0----------------------------------------0----------------0h2-0------------|
B|------3-----------3----3h5--/7-------------3---------------3-----------3---------|
G|------2-------------2-------------------0----0----------0----0-----------0-------|
D|---0-----------0---------------------2---------------2---------------------------|
A|---------------------------------------------------------------------------------|
D|---------------------------------------------------------------------------------|

e|---------------------3--------------x-x-x-x-x-x----|
B|------------3-----------3-----------x-x-x-x-x-x----|
G|---------0-----------------0--------x-x-x-x-x-x----|
D|------5-----------------------------x-x-x-x-x-x----|
A|------------------------------------x-x-x-x-x-x----|
D|------------------------------------x-x-x-x-x-x----|

Guitar Solo
e|---------------------------------------------------------------------------------|
B|---------10-------10------10-------10--------------------------------------------|
G|---9b11-----9b11-----9b11----9b11-----9b11-9b11-9b11-9b11-pb11-pbr9-7-pbr9---7---|
D|---------------------------------------------------------------------------------|
A|---------------------------------------------------------------------------------|
D|---------------------------------------------------------------------------------|

e|----------------------------------------------------------------------|
B|----------------------------------------------------------------------|
G|---pb11--pbr9~-------6p4p0--------------------------------------------|
D|---------------------------4p2p0-------------------------0---0--------|
A|-----------------------------------------------------------2----------|
D|----------------------------------2b---2~-----------------------------|

e|--------------------------------------------------------------15--15b17-----15~---------|
B|------3------------------3--------------3-----8------10---/17---------------------------|
G|--/4-----pbr4\2-0---2b4----pbr4\2----/4----/7----/12------------------------------------|
D|----------------------------------------------------------------------------------------|
A|----------------------------------------------------------------------------------------|
D|----------------------------------------------------------------------------------------|

e|---8b10--r8-----------------------------------------|
B|--------------10p8p6---/8--6~-----------------------|
G|---------------------------------*7h5---------------|
D|--------------------------------------5-------------|
A|----------------------------------------8-5\3-------|
D|----------------------------------------------3--0--|
  *(Not exactly sure on the notes here but play any fast scale down and it'll fit just as well)

Chorus 3 Fills

e|-----------5---------------------------10------------------------------------------------------------|
B|-------5b7---7r5--3--------------10b12----12r10p12---------------------------------------------------|
G|-----------------------------------------------------------------------------------------------------|
D|-------------------------------------------------------------------0---------------------------------|
A|--------------------------------------------------------------------------------0-3---2--3p2---------|
D|----------------------------------------------------------------------------------------------3p0----|

e|-------------------------------------------10-9b10r9-7-5---7\--------------------------------|
B|------5b7--7r5-3--/5--3~--------------------------------------3------------------------------|
G|---------------------------------------------------------------------------------------------|
D|---------------------------------------------------------------------------------------------|
A|---------------------------------------------------------------------------------------------|
D|---------------------------------------------------------------------------------------------|

e|---0-----------------------------------------------------------------------------|
B|---3-----------------------------------------------------------------------------|
G|---2---------------------------11p9p7--9b11--------------------------------------|
D|---0-----------------------------------------------------------------------------|
A|---------------------------------------------------------------------------------|
D|---------------------------------------------------------------------------------|

Outro Basic Chords (repeat as necessary)
e|---0-----------0------------0-----------0----------------|
B|---3-----------3------------3-----------3----------------|
G|---2-----------0------------2-----------0----------------|
D|---0-----------2------------4-----------2----------------|
A|---------------------------------------------------------|
D|---------------------------------------------------------|

Outro Fills
e|------------------------------------------------------------------------------------------|
B|---------3--------------------------------------------------------------------------------|
G|---2b4-----4r2b4r2-------2----------------------------------------------------------------|
D|---------------------/4----2------2--2p0--------------------------------------------------|
A|------------------------------------------------------------------------------------------|
D|----------------------------------------------------------------2~-2~-2~--2~-0------------|

e|-------------------------------------------------------------------------------------------|
B|------------------------------------------------3---------3-3------------------------------|
G|------------------------------------------------2---------2-2------11--/12--11-9--7--------|
D|----------------------------------------------------2h4------------------------------------|
A|-------------------------------------------------------------------9---/10--9--7--5--------|
D|----9p0h9p0h9p0h7p0h7p0h6p0h5p0h3p0---------0----------------------------------------------|

e|---------------------------------------------------------------------|
B|---------------------------------------------------------------------|
G|---2b4---2------------------7--5p2p0-5----5p4p2p0--2--0--------------|
D|------------4p3p2p0---0---------------------------------3p0----------|
A|--------------------2--------------------------------------3---------|
D|---------------------------------------------------------------------|

Fade out...

************************************

| /   slide up
| \   slide down
| h   hammer-on
| p   pull-off
| ~   vibrato
| +   harmonic
| x   Mute note
| b   Bend
| pb  Pre-bend
| br  Bend release
| pbr Pre-bend release
| brb Bend release bend

************************************

            
            
Suggest correction
Creating personal tab
Creating personal tab
You can edit any tab online and save it as your Personal.

You can edit, replace or remove any tab part or add personal notes – all changes will be seen only by you.

Personal tabs can be accessed anytime from any device, even offline.
Learn more »
Give kudos to tab author, rate the tab!
1 2 3 4 5
comments
print report bad tab
guest
You may want to rate the tab now too:
select rating
Wanna post a correction for this tab? Suggest correction