Oops, an error
Loading. Please wait.

You Look Good In My Shirt Tab

version 1
version 1

Intro

Whole song

Interactive

26,002 views 3 this week
1 commentread comment
1 2 3 4 5
please rate
add to favorites
launch autoscroll
font size
0
reset
how to read this tab
guitar tuner
Autoscroll
slow
fast
+/-
esc
set tempo
stop
Help us to improve Ultimate-Guitar.com Take our survey!
×
Author
Difficulty
novice
G'day,
         this is my first tab ever so i apologise if it looks a bit dodgy!i picked up a 
6months ago and i am always open to suggestion and more good pointers with guitar, email 
( freakmitch@hotmail.com)

 |----------------------------------------------------------------------|
 |----------------------------------------------------------------------|
 |--------2h4p2-0h4p2-0h4p2-0h4/18--------------------------------------|
 |----0-2---------------------------------------------------------------|
 |----------------------------------------------------------------------|
 |-\1-------------------------------------------------------------------|

 |------------------------------------------------------------------------|
 |------------------------------------------------------------------------|
 |-----2h4p2p0h4p2p0h444-----2h4p2p04~-------2h4p2p0h444------2h4p2p0-----|
 |--0-2-----------------5-0-2----------0-2---------------5-0-2--------5~--|
 |------------------------------------------------------------------------|
 |\1---------------------------------------\1-----------------------------|

Thats it!!!i am pretty sure i got it right but as i have said its my first time and let 
know if you make any changes!
cheers!
Mitch
Suggest correction
Give kudos to tab author, rate the tab!
1 2 3 4 5
comments
print report bad tab
1 comment total.
+3 reply
redneckrocker2 20 wrote on July 2 2008, 03:47 pm

i think he bends the G string while hitting the B string on the third fret instead of hammer ons and pull offs its bends.

e--------------------------------------------------------------------
b---------3---3----3--3---------------------------------------------
g--------2b-r2b0--2b 2b--r0------------------------
|----0h2----------------------2-----------------------------------
|-------------------------------------------------------------------
|-----------------------------------------------------------------


or something like that. just a thought.

guest
You may want to rate the tab now too:
select rating
Please do not post tabs as comments. Select "correction" instead!