Oops, an error
Loading. Please wait.

You Look Good In My Shirt tab

version 3
version 3

Whole song

Interactive

233 views 1 this week
no commentswrite comment
1 2 3 4 5
3 more votes to show rating
add to favorites
×
Save as Personal and add changes to this tab that will be seen only by you. Learn more ›
×
You can save this tab as Personal to edit and correct it or add notes. All changes will be seen only by you. Learn more »
launch autoscroll
font size
0
reset
how to read this tab
guitar tuner
edit
Autoscroll
slow
fast
+/-
esc
set tempo
stop
Keith Urban: You Look Good in My Shirt

e|---------------------------------------------------------|
B|---------------------------------------------------------|
G|------0-2/4--2-0--2/4--2/4--2-0--------------------------|
D|--0-2----------------------------------------------------|
A|---------------------------------------------------------|
E|---------------------------------------------------------|

e|---------------------------------------------------------|
B|---------------------------------------------------------|
G|------0-2/4--2-0--2/4--2/4--2-0------0-2/4--2-0--2/4-----|
D|--0-2----------------------------0-2---------------------|
A|---------------------------------------------------------|
E|---------------------------------------------------------|

e|---------------------------------------------------------|
B|---------------------------------------------------------|
G|------0-2/4--2-0--2/4--2/4--2-0------0-2/4--2-0-0--------|
D|--0-2----------------------------0-2---------------------|
A|---------------------------------------------------------|
E|---------------------------------------------------------|   

C                                G    
WHEN YOU WALKED UP BEHIND ME AND COVERED MY EYES
    D                         Em                       
AND WHISPERED IN MY EAR GUESS WHO
  C                        G                          
I RATTLED OFF NAMES LIKE I REALLY DIDN’T KNOW
    D                       G    
BUT ALL ALONG I KNEW IT WAS YOU

C                            G         
AND THE LONGER WE TALKED THE MORE WE LAUGHED
    D                      Em     
AND WONDERED WHY WE DIDN’T LAST
       C                     G    
IT HAD BEEN A LONG TIME, BUT LATEER LAST NIGHT
D                  C    G
BABY, WE CAUGHT UP REAL FAST

C            G
MAYBE IT’S A LITTLE TOO EARLY
   Em                    C    
TO KNOW IF THIS IS GONNA WORK
C                    G
ALL I KNOW IS YOU’RE SURE LOOKIN’
Em      D  G
GOOD IN MY SHIRT

e|---------------------------------------------------------|
B|---------------------------------------------------------|
G|------0-2/4--2-0--2/4--2/4--2-0------0-2/4--2-0--2/4-----|
D|--0-2----------------------------0-2---------------------|
A|---------------------------------------------------------|
E|---------------------------------------------------------|
  YOU LOOK GOOD IN MY SHIRT

e|---------------------------------------------------------|
B|---------------------------------------------------------|
G|------0-2/4--2-0--2/4--2/4--2-0------0-2/4--2-0-0--------|
D|--0-2----------------------------0-2---------------------|
A|---------------------------------------------------------|
E|---------------------------------------------------------|

C                               G      
WELL NOW I’M NOT SAYING THAT WE SOLVED OVERNIGHT
      D                Em
EVERY WAY THAT WE WENT WRONG
        C                   G     
OH, BUT WHAT I’M SEEIN’ I’D SURE LOVE SEEIN’
     D       C        G
EVERY MORNING FROM NOW ON

C            G
MAYBE IT’S A LITTLE TOO EARLY
   Em                    C    
TO KNOW IF THIS IS GONNA WORK
C             G
ALL I KNOW IS YOU’RE SURE LOOKIN’
Em      D  G
GOOD IN MY SHIRT

e|---------------------------------------------------------|
B|---------------------------------------------------------|
G|------0-2/4--2-0--2/4--2/4--2-0------0-2/4--2-0--2/4-----|
D|--0-2----------------------------0-2---------------------|
A|---------------------------------------------------------|
E|---------------------------------------------------------|

e|---------------------------------------------------------|
B|---------------------------------------------------------|
G|------0-2/4--2-0--2/4--2/4--2-0------0-2/4--2-0-0--------|
D|--0-2----------------------------0-2---------------------|
A|---------------------------------------------------------|
E|---------------------------------------------------------|

C            G
MAYBE IT’S A LITTLE TOO EARLY
   Em                    C    
TO KNOW IF THIS IS GONNA WORK
C             G
ALL I KNOW IS YOU’RE SURE LOOKIN’
Em      D  G
GOOD IN MY SHIRT

    C            G
AND MAYBE IT’S A LITTLE TOO EARLY
   Em                    C    
TO KNOW IF THIS IS GONNA WORK
C             G
ALL I KNOW IS YOU’RE SURE LOOKIN’
Em      D  G
GOOD IN MY SHIRT
         Em      D  G
YOU LOOK GOOD IN MY SHIRT  1, 2, 3, 4

e|---------------------------------------------------------|
B|---------------------------------------------------------|
G|------0-2/4--2-0--2/4--2/4--2-0------0-2/4--2-0--2/4-----|
D|--0-2----------------------------0-2---------------------|
A|---------------------------------------------------------|
E|---------------------------------------------------------|
    YOU LOOK GOOD IN MY SHIRT

e|---------------------------------------------------------|
B|---------------------------------------------------------|
G|------0-2/4--2-0--2/4--2/4--2-0------0-2/4--2-0-0--------|
D|--0-2----------------------------0-2---------------------|
A|---------------------------------------------------------|
E|---------------------------------------------------------|

e|---------------------------------------------------------|
B|---------------------------------------------------------|
G|------0-2/4--2-0--2/4--2/4--2-0------0-2/4--2-0--2/4-----|
D|--0-2----------------------------0-2---------------------|
A|---------------------------------------------------------|
E|---------------------------------------------------------|

e|---------------------------------------------------------|
B|---------------------------------------------------------|
G|------0-2/4--2-0--2/4--2/4--2-0------0-2/4--2-0-0--------|
D|--0-2----------------------------0-2---------------------|
A|---------------------------------------------------------|
E|---------------------------------------------------------|

e|---------------------------------------------------------|
B|---------------------------------------------------------|
G|------0-2/4--2-0--2/4--2/4--2-0------0-2/4--2-0--2/4-----|
D|--0-2----------------------------0-2---------------------|
A|---------------------------------------------------------|
E|---------------------------------------------------------|

e|---------------------------------------------------------|
B|---------------------------------------------------------|
G|------0-2/4--2-0--2/4--2/4--2-0------0-2/4--2-0-0--------|
D|--0-2----------------------------0-2---------------------|
A|---------------------------------------------------------|
E|---------------------------------------------------------|
Suggest correction
Creating personal tab
Creating personal tab
You can edit any tab online and save it as your Personal.

You can edit, replace or remove any tab part or add personal notes – all changes will be seen only by you.

Personal tabs can be accessed anytime from any device, even offline.
Learn more »
Give kudos to tab author, rate the tab!
1 2 3 4 5
comments
print report bad tab
guest
You may want to rate the tab now too:
select rating
Wanna post a correction for this tab? Suggest correction