Oops, an error
Loading. Please wait.

You Or Somebody Like You Tab

2,711 views 1 this week
2 commentsread comments
1 2 3 4 5
x 3
add to favorites
launch autoscroll
font size
0
reset
how to read this tab
guitar tuner
Autoscroll
slow
fast
+/-
esc
set tempo
stop
Help us to improve Ultimate-Guitar.com Take our survey!
×
Difficulty
novice
I've looked all over for the tabs on this one and couldn't find em.  I had to figure 
of) it out for myself.  Simple power chords, but I haven't taken the time to figure out the 
 Good luck with the solo - its beyond my abilities.

Keith Urban - You (or Somebody Like You)

Intro:
     Bb  Eb  C   G#  C#
e -----------------------|
B -----------------------|
G -------8---5-------6---|
D ---8---8---5---6---6---|
A ---8---6---3---6---4---|
E ---6-----------4-------|

Verse(s):
e -------------------|
B -------------------|
G ---8---5-------6---|
D ---8---5---6---6---|
A ---6---3---6---4---|
E -----------4-------|
Suggest correction
Give kudos to tab author, rate the tab!
1 2 3 4 5
comments
print report bad tab
2 comments total.
0 reply
Wuttle 41 Oct 15, 2007 05:17 PM

:(

-1 reply
jesusninja27 10 Dec 01, 2007 08:21 PM

wow... way off

guest
You may want to rate the tab now too:
select rating
Wanna post a correction for this tab? Suggest correction