Oops, an error
Loading. Please wait.

Youll Think Of Me Tab

version 2
version 2

Intro

Whole song

36,688 views 12 this week
2 commentsread comments
1 2 3 4 5
excellent!
x 5
add to favorites
launch autoscroll
font size
0
reset
how to read this tab
guitar tuner
Tab Pro tools
  • play this tab
  • loop segment
  • change instrument
  • show fretboard
  • metronome
×
Best way to learn
"Youll Think Of Me"
Autoscroll
slow
fast
+/-
esc
set tempo
stop
Difficulty
intermediate
You'll think of me(Acoustic live)
                                           -Keith Urban-

I saw his playin on Session AOL In-studio version.
and I made this tab seeing and listening how he plays
so It's perfect I sure!!
It's before 'I woke early this..'
and this is my first tab. Enjoy!

tabbed by LeeJunSeop(Korea fighting!!)

Authorized!!!

Cappoed on 2nd fret

*if you wanna copy to other place, please attach my name
                              
Intro 
                               
E--------------0---------------|---------------0---------|
B--------3-------3-----3-------|--------3------------3---|
G------4---4-------4-----4---4-|------0---0-------0------|
D----4-------4-------4-----4---|----2-------2------2-----|
A------------------------------|--3----------------------|
E--0---------------------------|-------------------------|

                               
E--------------0---------------|-------------------------------|
B--------3-------3-----3-------|--5v--7v--8v--10v--10s12s5--5v-|
G------4---4-------4-----4-----|-------------------------------|
D----4-------4-------4-----4---|-------------------------------|
A------------------------------|-------------------------------|
E--0---------------------------|-------------------------------|

                               
E--------------0---------------|------------------------------------|
B--------3-------3-------------|------------------------------------|
G------4---4-------4-------0---|----2-4---2--0----------------------|
D----4-------4---------4-4---0-|----------------2h4-5--2h4-5--5p4p0-|
A--------------------2---------|------------------------------------|
E--0---------------------------|------------------------------------|

                               down strumming here
E--------------0-------------|----------0----|
B--------3-------3--------3--|----------2----|
G------4---4-------4-------0-|----------0----|
D----4-------4-------4-------|----------2----|
A-----------------------5----|----------3----|
E--0-------------------------|----------X----|

                             
E--------------3-------------|---------------0h2--------|
B----------------3-----------|----------3-------3-------|
G-------0----------0-0-------|--------2--2-2-----2------|
D-----0--0-0-----------------|------0-------------0-----|
A-----------------------0h2--|---0------------------0h2-|
E--3-------------------------|--------------------------|

                             
E---------------0------------|------------3-----------|
B---------0-------0----------|--------1----1----------|
G-----------0-------0--------|---------0----0---------|
D-------------0-------0------|------2---2----2--0h2---|
A----------------------------|---3--------------------|
E--0--2-2----------------2s3-|------------------------|

v = vibrato
h = hammering on
p = pulling off
s = slide
x = mute
comments
print report bad tab
2 comments total.
0 reply
ozhobby wrote on October 17 2006, 06:41 am

oh I have a mistake before strumming.
it has to be 2 3 0 before strumming ;D

0 reply
GuitarN000b wrote on May 24 2007, 11:09 am

it's a decent tab

I want to post or [tab]
guest
You may want to rate the tab now too:
select rating
Please do not post tabs as comments. Select "correction" instead!