Oops, an error
Loading. Please wait.

Because Of You Bass Tab

version 1
version 1

Whole song

Interactive

13,039 views 9 this week
4 commentsread comments
1 2 3 4 5
accurate
x 5
add to favorites
launch autoscroll
font size
0
reset
guitar tuner
Autoscroll
slow
fast
+/-
esc
set tempo
stop
Help us to improve Ultimate-Guitar.com Take our survey!
×
Author
Difficulty
novice
“Because Of You” by Kelly Clarkson

Everything in this song is quarter notes, and you let each note ring.  You’ll have to
listen to the song to know when to play each part, and there are certain parts that
require you to hold only for a certain period of time, which is hard to translate into
tabs, so yeah, just listen to the song a few times to get the timing down.

Intro:
G|-----------------|
D|-----------------|
A|-----------------| don’t play
E|-----------------|

Verse 1:
G|----------------------------------------------------------------|
D|----------------------------------------------------------------|
A|---------3---3-----------6---6-----------3---3-----------6---6--|
E|-4---4-----------1---1-----------4---4-----------1---1----------|

G|-------------------------------------------------------------------|
D|-------------------------------------------------------------------|
A|---------3---3-----------6---6-----------3---3-----------6---6/12--|
E|-4---4-----------1---1-----------4---4-----------1---1-------------|

Chorus:
G|----------------------------------------------------------------|
D|----------------------------------------------------------------|
A|---------4---4---6---6---6---6-----------4---4---6---6---6---6--|
E|-1---1---------------------------1---1--------------------------|

G|----------------------------------------------------------------|
D|----------------------------------------------------------------|
A|---------4---4---6---6---6---6-----------4---4---6---6---6---6--|
E|-1---1---------------------------1---1--------------------------|

G|--------------------------------------------------------|
D|--------------------------------------------------------|
A|-4---4---3---3---6---6---6---6---4---4---4---4---6---6--|
E|--------------------------------------------------------|

Verse 2:
G|----------------------------------------------------------------|
D|----------------------------------------------------------------|
A|---------3---3-----------6---6-----------3---3-----------6---6--|
E|-4---4-----------1---1-----------4---4-----------1---1----------|

G|-------------------------------------------------------------------|
D|-------------------------------------------------------------------|
A|---------3---3-----------6---6-----------3---3-----------6---6/12--|
E|-4---4-----------1---1-----------4---4-----------1---1-------------|

Chorus:
G|----------------------------------------------------------------|
D|----------------------------------------------------------------|
A|---------4---4---6---6---6---6-----------4---4---6---6---6---6--|
E|-1---1---------------------------1---1--------------------------|



G|----------------------------------------------------------------|
D|----------------------------------------------------------------|
A|---------4---4---6---6---6---6-----------4---4---6---6---6---6--|
E|-1---1---------------------------1---1--------------------------|

G|----------------------------------------------------------------|
D|----------------------------------------------------------------|
A|-4---4---3---3---6---6---6---6---4---4---4---4---6---6---6---6--|
E|----------------------------------------------------------------|

Interlude:
G|----------------------------------------------------------------|
D|----------------------------------------------------------------|
A|-3---3-----------6---6---6---6---3---3-----------6---6---6---6--|
E|---------1---1---------------------------1---1------------------|

G|-------------------------------------------------------------------|
D|-------------------------------------------------------------------|
A|-3---3-----------6---6---6---6---3---3-----------4---4---6---6/12--|
E|---------1---1---------------------------1---1---------------------|

Chorus:
G|----------------------------------------------------------------|
D|----------------------------------------------------------------|
A|---------4---4---6---6---6---6-----------4---4---6---6---6---6--|
E|-1---1---------------------------1---1--------------------------|

G|----------------------------------------------------------------|
D|----------------------------------------------------------------|
A|---------4---4---6---6---6---6-----------4---4---6---6---6---6--|
E|-1---1---------------------------1---1--------------------------|

G|------------------------------------------------------|
D|------------------------------------------------------|
A|-4---4---3---3---6---6---6---6---4---4---4---4---6\0--|
E|------------------------------------------------------|

Suggest correction
comments
print report bad tab
4 comments total. Showing first comments.
0 reply
Jimpan 63 wrote on February 15 2006, 01:44 pm

Except that you wrote a thing twice in the chorus, its great.

+1 reply
angelwings53 10 wrote on April 28 2006, 03:36 pm

There's a key change before the last chorus... I can't figure it out though. Other than leaving that out this is excellent.

0 reply
Little Antony 10 wrote on January 19 2007, 06:09 am

The tab its great, except the thing twice in the chorus (Jimpan wrote)
But i think the last thing in the chorus is:
G|----------------------------------------------------------------|
D|----------------------------------------------------------------|
A|-3---3---1---1---3---3---6---6---3---3---4---4---4---4---6---6--|
E|----------------------------------------------------------------|

what do you think about? thanks

guest
You may want to rate the tab now too:
select rating
Wanna post a correction for this tab? Suggest correction