Oops, an error
Loading. Please wait.

Behind These Hazel Eyes Chords

version 1
version 1

Acoustic

Whole song

Interactive

39,299 views 18 this week
12 commentsread comments
1 2 3 4 5
accurate
x 14
add to favorites
launch autoscroll
font size
0
reset
transpose
0
reset
simplify chords
display chords
guitar tuner
Autoscroll
slow
fast
+/-
esc
set tempo
stop
Help us to improve Ultimate-Guitar.com Take our survey!
×
Author
Capo
2nd fret
Great song, great artist. I tried my best with this song. Its from the vh1/mtv live performance.

Edit: I added the intro and fixed a couple of things.

Capo 2

Intro:
e-----------------------------------------------------------|
b--7--8-----8-----8-----8----------3-----------3------------|
g--------7-----9-----7------4--2------2-----2-----2---------| (x2)
d----------------------------------------4------------------|
a-----------------------------------------------------------|
E-----------------------------------------------------------|

Intro: Em7 , C2 , G5 , D (x2)

Verse


------------------------------------------------------------|
------------------------------------------------------------|
---------0--------0-----------------0-------0---------------|
------2--------0------0------------------4-----4------------|
------------3------------3-------5----5------------5--------|
---0--------------------------3-----------------------------|

pre-chorus:

C5 , G5 , C2 , D


Chorus:
       Em7       C2
Here I am, once again
     G (no 3rd)    D
I'm torn into pieces
       Em7             C2
can't deny it can't pretend
      G (no 3rd)           D
just thought you were the one
       Em7         C2
broken up deep inside
     A2    ----let ring------        Em7   C2
but you won't get to see the tears I cry
G(no 3rd)           D
behind these hazel eyes

Verse
Pre-chorus
Chorus

Bridge:
   Am                     G(no 3rd)
swallowed me then spit me out
      Am                 Em7
for hating you, I blame myself
      Am                  G(no 3rd)
just seeing you it kills me now
      Am               C         D
no i don't cry on the out      side anymore

Verse
Chorus(x2)


Chords:
Em7:022033
C2:032033
G(no 3rd):3x0033
D:xx0232
C5:x355xx
G5:3554xx
A2:x02200
Am:x02210


Questions or comments email me at sportsfr3ak549@yahoo.com
Suggest correction
What's this?
You can suggest a correction to this tab. Community and Mods will review your correction and vote to approve or reject it.
comments
print report bad tab
12 comments total. Showing first comments.
0 reply
sportsfr3ak549 433 wrote on April 16 2005, 12:00 am

made a tiny mistake:
---------------------------------------------------------|
---------------------------------------------------------|
---------0--------0-----------------0-------0------------|
------2--------0------0------------------4-----4---------|
------------3------------3-------5-----5-----------5------|
---0--------------------------3--------------------------|

0 reply
Greluche 207 wrote on April 21 2005, 12:00 am

it's a very great tab. it's perfect

0 reply
Jesse608 95 wrote on July 14 2005, 12:00 am

Excellent tab! Keep up the good work!

guest
You may want to rate the tab now too:
select rating
Please do not post tabs as comments. Select "correction" instead!