Oops, an error
Loading. Please wait.

Behind These Hazel Eyes Bass Tab

version 1
version 1

Whole song

Interactive

9,327 views 3 this week
no commentswrite comment
1 2 3 4 5
accurate
x 3
add to favorites
launch autoscroll
font size
0
reset
guitar tuner
Autoscroll
slow
fast
+/-
esc
set tempo
stop
Help us to improve Ultimate-Guitar.com Take our survey!
×
Author
   
    *Kelly Clarkson- Behind These Hazel Eyes*

          Standard Tuning: EADG
           / slide
           x mute
           ~ ring

   This is my first tab so if there are any mistakes please correct them!!

  Intro

   G |----------------------|
   D |---------------7-7----|
   A |-------5-----------7--|
   E |--2-2-----------------| x2

  There is no bass in the first part of Verse 1 
       it comes in at "your arms around me tight" (00:21)

   
  Verse 1

   G |-------------------------------------|
   D |-------------7-----------------------|
   A |-----5----------7------5-------------|
   E |--2-----------------2----------5--0--|

   G |---------------------------------------|
   D |---------------------------------------|
   A |--55555555------------55555555--77777--|
   E |------------22222222-------------------|


  Chorus 

   G |--------------------------|
   D |--------------------------|
   A |--------5555--------7777--|
   E |--2222--------5555--------|

   G |--------------------------|
   D |--------------------------|
   A |--------5555--------------|
   E |--2222--------5555--0000--|

   G |-------------------------|
   D |-------------------------|
   A |-------5555-----------5--|
   E |-2222--------7~--2-2-----|


  Verse 2

   G |--------------------------|
   D |--------------------------|
   A |-------55555-------77777--|
   E |--222---------555---------|

   G |--------------------------|
   D |--------------------------|
   A |-------55555--------------|
   E |--222---------555--00000--| x2

   G |---------------------------------------|
   D |---------------------------------------|
   A |--55555555------------55555555--77777--|
   E |------------22222222-------------------|


  Chorus 

   G |--------------------------|
   D |--------------------------|
   A |--------5555--------7777--|
   E |--2222--------5555--------|

   G |--------------------------|
   D |--------------------------|
   A |--------5555--------------|
   E |--2222--------5555--0000--|

   G |-------------------------|
   D |-------------------------|
   A |-------5555-----------5--|
   E |-2222--------7~--2-2-----|


  Bridge

   G |------------------------------------------------|
   D |------------------------------------------------|
   A |--2-2-xxxxx--------------7-7-xxxxx--9-99999999--|
   E |-------------5-5555555--------------------------|

   G |-------------------------|
   D |-------------------------|
   A |--2-2-xxxxx--------------|
   E |-------------5-55555555--|

   G |-------------------------------------------|
   D |-------------------------------------------|
   A |--22222222--55555--777--9~----9--5--77777--|
   E |-------------------------------------------|


  Chorus 

   G |--------------------------|
   D |--------------------------|
   A |--------5555--------7777--|
   E |--2222--------5555--------|

   G |--------------------------|
   D |--------------------------|
   A |--------5555--------------|
   E |--2222--------5555--0000--|

   G |----------------------------------------|
   D |----------------------------------------|
   A |-------5555--------------------------5--|
   E |-2222--------7777/19191919----2-2-2-----|

   G |--------------------------|
   D |--------------------------|
   A |--------5555--------7777--|
   E |--2222--------5555--------|

   G |--------------------------|
   D |--------------------------|
   A |--------5555--------------|
   E |--2222--------5555--0000--|

   G |-------------------------|
   D |-------------------------|
   A |-------5555-----------5--|
   E |-2222--------7~--2-2-----|

    And thats is soo have funn!!!!
Suggest correction
Give kudos to tab author, rate the tab!
1 2 3 4 5
comments
print report bad tab
guest
You may want to rate the tab now too:
select rating
Please do not post tabs as comments. Select "correction" instead!