Oops, an error
Loading. Please wait.

One More Yesterday tab

58 views 1 this week
no commentswrite comment
1 2 3 4 5
3 more votes to show rating
add to favorites
×
Save as Personal and add changes to this tab that will be seen only by you. Learn more ›
×
You can save this tab as Personal to edit and correct it or add notes. All changes will be seen only by you. Learn more »
launch autoscroll
font size
0
reset
how to read this tab
guitar tuner
edit
Autoscroll
slow
fast
+/-
esc
set tempo
stop
Drop D Tuning


[Intro]

e|---------------------------------------------------------------|
B|---------------------------------------------------------------|
G|---------------------------------------------------------------|
D|----5---5-------1---1------8---8------3---3--------------------| x2
A|----5---5-------1---1------8---8------3---3--------------------|
D|----5---5-------1---1------8---8------3---3--------------------|


[Verse 1]

e|---------------------------------------------------------------|
B|---------------------------------------------------------------|
G|---------------------------------------------------------------|
D|----5---5-------1---1------8---8------3---3--------------------| x3
A|----5---5-------1---1------8---8------3---3--------------------|
D|----5---5-------1---1------8---8------3---3--------------------|

e|------------------------------------|
B|------------------------------------|
G|------------------------------------|
D|----10---10---10---10----1----3-----| 
A|----10---10---10---10----1----3-----|
D|----10---10---10---10----1----3-----|

Looking back at what we had
Before the bridges burned
The plans we made, of give and take
So little in return
If nothing else, we lost ourselves
Somewhere along the way
What I’d give for one more yesterday


[Chorus]

e|---------------------------------------------------------------|
B|---------------------------------------------------------------|
G|---------------------------------------------------------------|
D|----5---5-------1---1------8---8------3---3--------------------| x3
A|----5---5-------1---1------8---8------3---3--------------------|
D|----5---5-------1---1------8---8------3---3--------------------|

e|------------------------------------|
B|------------------------------------|
G|------------------------------------|
D|----10---10---10---10----1----3-----| 
A|----10---10---10---10----1----3-----|
D|----10---10---10---10----1----3-----|

I was never gonna let you down
Give you solid ground when your world was shaking
How could it come to this?
I was tryna fix, but we ended up breaking
I remember when we falled and laid to rest
And promises, they wash away
What I’d give for one more yesterday

e|---------------------------------------------------------------|
B|---------------------------------------------------------------|
G|---------------------------------------------------------------|
D|----5---5-------1---1------8---8------3---3--------------------| 
A|----5---5-------1---1------8---8------3---3--------------------|
D|----5---5-------1---1------8---8------3---3--------------------|


[Verse 2]

e|---------------------------------------------------------------|
B|---------------------------------------------------------------|
G|---------------------------------------------------------------|
D|----5---5-------1---1------8---8------3---3--------------------| x3
A|----5---5-------1---1------8---8------3---3--------------------|
D|----5---5-------1---1------8---8------3---3--------------------|

e|------------------------------------|
B|------------------------------------|
G|------------------------------------|
D|----10---10---10---10----1----3-----| 
A|----10---10---10---10----1----3-----|
D|----10---10---10---10----1----3-----|
Memories, the used-to-bes
Are complicated things
The woulda-beens, the coulda-beens
Are suffocating me
Now you got what I’m choking on
The words that always came out wrong
What I’d give for one more yesterday


[Chorus]

e|---------------------------------------------------------------|
B|---------------------------------------------------------------|
G|---------------------------------------------------------------|
D|----5---5-------1---1------8---8------3---3--------------------| x3
A|----5---5-------1---1------8---8------3---3--------------------|
D|----5---5-------1---1------8---8------3---3--------------------|

e|------------------------------------|
B|------------------------------------|
G|------------------------------------|
D|----10---10---10---10----1----3-----| 
A|----10---10---10---10----1----3-----|
D|----10---10---10---10----1----3-----|

I was never gonna let you down
Give you solid ground when your world was shaking
How could it come to this?
I was tryna fix, but we ended up breaking
I remember when we falled and laid to rest
And promises, they wash away
What I’d give for one more yesterday


[Bridge]

e|-----------------------------------------------------------|
B|-----------------------------------------------------------|
G|-----------------------------------------------------------|
D|----1-1-1-1-1-1-1-1---2-2-2-2--3-3--2-2--------------------|x2
A|----1-1-1-1 1-1-1-1---2-2-2-2--3-3--2-2--------------------|
D|----1-1-1-1-1-1-1-1---2-2-2-2--3-3--2-2--------------------|

e|---------------------------------------------------------------------------|
B|---------------------------------------------------------------------------|
G|---------------------------------------------------------------------------|
D|----1-1-1-1-1-1-1-1-1-1-1-1-1-1-1-1--2-2-2-2-2-2-2-2-2-2-2-2-2-2-2-2-------|
A|----1-1-1-1 1-1-1-1-1-1-1-1-1-1-1-1--2-2-2-2-2-2-2-2-2-2-2-2-2-2-2-2-------|
D|----1-1-1-1-1-1-1-1-1-1-1-1-1-1-1-1--2-2-2-2-2-2-2-2-2-2-2-2-2-2-2-2-------|

I know we both said
Moving on is only for the better
I know we both left
But how we could’ve been locked together?
Saying it doesn’t make it so
Shoulda never let us go

e|---------------------------------------------------------------|
B|---------------------------------------------------------------|
G|---------------------------------------------------------------|
D|----5---5-------1---1------8---8------3---3--------------------| x2
A|----5---5-------1---1------8---8------3---3--------------------|
D|----5---5-------1---1------8---8------3---3--------------------|


[Chorus]

e|---------------------------------------------------------------|
B|---------------------------------------------------------------|
G|---------------------------------------------------------------|
D|----5---5-------1---1------8---8------3---3--------------------| x3
A|----5---5-------1---1------8---8------3---3--------------------|
D|----5---5-------1---1------8---8------3---3--------------------|

e|------------------------------------|
B|------------------------------------|
G|------------------------------------|
D|----10---10---10---10----1----3-----| 
A|----10---10---10---10----1----3-----|X2
D|----10---10---10---10----1----3-----|

I was never gonna let you down
Give you solid ground when your world was shaking
How could it come to this?
I was tryna fix, but we ended up breaking
I remember when we falled and laid to rest
And promises, they wash away
What I’d give for one more yesterday
What I’d give for one more yesterday
What I’d give for one more yesterday

e|---------------------------------------------------------------|
B|---------------------------------------------------------------|
G|---------------------------------------------------------------|
D|----5---5-------1---1------8---8------3---3--------------------| x2
A|----5---5-------1---1------8---8------3---3--------------------|
D|----5---5-------1---1------8---8------3---3--------------------|

            
            
Suggest correction
Creating personal tab
Creating personal tab
You can edit any tab online and save it as your Personal.

You can edit, replace or remove any tab part or add personal notes – all changes will be seen only by you.

Personal tabs can be accessed anytime from any device, even offline.
Learn more »
Give kudos to tab author, rate the tab!
1 2 3 4 5
comments
print report bad tab
guest
You may want to rate the tab now too:
select rating
Wanna post a correction for this tab? Suggest correction