Oops, an error
Loading. Please wait.

Since Youve Been Gone Bass Tab

version 2
version 2

Whole song

Interactive

1,322 views 1 this week
no commentswrite comment
1 2 3 4 5
please rate
add to favorites
launch autoscroll
font size
0
reset
guitar tuner
Tab Pro tools
  • play this tab
  • loop segment
  • change instrument
  • show fretboard
  • metronome
×
Best way to learn
"Since Youve Been Gone"
Autoscroll
slow
fast
+/-
esc
set tempo
stop
Difficulty
novice
No bass intro
No bass first verse
Verse- Youre dedicated...
G|----------------------------------------------------------|
D|----------------------------------------------------------|
A|----------------------------------------------------------|
E|33333333-3333-5555-0000--00000000-1111-33333333-0000-1111-|
-
G|-------------------------------------------------------|
D|-------------------------------------------------------|
A|-------------------------------------------------------|
E|11111111-33333333-55555555-00000000-11111111-333333333-|

Chorus
G|------------------| |-------------------|---------------------------------------|
D|------------------| |-2222--------------|---------------------------------------|
A|2222-333----------|x2|----333-----------|------------------55555555-5~~---------|
E|---------3-3333333| |---------3-3333333-|-55555555-00000000-------------------3-|

Verse-How can I put it..
G|----------------------------------------------------------|
D|----------------------------------------------------------|
A|----------------------------------------------------------|
E|33333333-3333-5555-0000--00000000-1111-33333333-0000-1111-|
-
G|-------------------------------------------------------|
D|-------------------------------------------------------|
A|-------------------------------------------------------|
E|11111111-33333333-55555555-00000000-11111111-333333333-|

Chorus
G|------------------| |-------------------|---------------------------------------|
D|------------------| |-2222--------------|---------------------------------------|
A|2222-333----------|x2|----333-----------|------------------55555555-5~~---------|
E|---------3-3333333| |---------3-3333333-|-55555555-00000000-------------------3-|

Bridge
G|-----------------------------------------------------------------|
D|-----------------------------------------------------------------|
A|33333333--------33333333--------33333333-------33333333333333333~|
E|--------22222222--------55555555---------------------------------|

Chorus
G|------------------| |--------------------|------------------|
D|------------------| |-2222---------------|------------------|
A|2222-333---------|x2|------333-----------|------------------|
E|---------3-3333333| |----------3-3333333-|-55555555-00000000|

Back to Chorus 
G|-----------------| |--------------------|------------------| |-----------------------------|
D|-----------------| |-2222---------------|------------------| |-----------------------------|
A|2222-333---------|x2|------333----------|-----------------|x2|-55555555--------------------|
E|--------3-3333333| |----------3-3333333-|-55555555-00000000| |---------------3------------3|
comments
We did not receive enough feedback on this tab! Please rate:
print report bad tab
1 2 3 4 5
I want to post or [tab]
guest
You may want to rate the tab now too:
select rating
Please do not post tabs as comments. Select "correction" instead!