Oops, an error
Loading. Please wait.

Walk Away Bass Tab

version 1
version 1

Whole song

Interactive

3,704 views 1 this week
no commentswrite comment
1 2 3 4 5
2 more votes to show rating
add to favorites
launch autoscroll
font size
0
reset
guitar tuner
Autoscroll
slow
fast
+/-
esc
set tempo
stop
Help us to improve Ultimate-Guitar.com Take our survey!
×
Author
----------------------------------------------------------------------------
			     WALK AWAY-KELLY CLARKSON
----------------------------------------------------------------------------

Tabbed By : bassstar
e-mail: 

Tuning:EADG

Intro

G|--------------------|
D|--------------------|
A|------1-1--3-3-33-3-|
E|-3-3----------------|

Verse

G|-------------------------------------------------------------------------|
D|-------------------------------------------------------------------------|
A|------1-1--3-3-33-3----1-1--3-3-33-3-----11-1-3-3-33-3------11-1-3-3-33-3|
E|-3-3---------------3-3---------------3-3---------------3-3---------------|

Chorus

G|---------------------------------------------------------|
D|---------------------------------------------------------|
A|-----------3-3-33-3-----------3-3-33-3---------3-3-33-3--|
E|-3-3--11-1----------3-3--11-1---------3-3--11-1----------|

Suggest correction
Give kudos to tab author, rate the tab!
1 2 3 4 5
comments
print report bad tab
guest
You may want to rate the tab now too:
select rating
Wanna post a correction for this tab? Suggest correction