Oops, an error
Loading. Please wait.

Radioactive tab

4,780 views 39 this week
no commentswrite comment
1 2 3 4 5
x 7
add to favorites
×
Save as Personal and add changes to this tab that will be seen only by you. Learn more ›
×
You can save this tab as Personal to edit and correct it or add notes. All changes will be seen only by you. Learn more »
launch autoscroll
font size
0
reset
how to read this tab
guitar tuner
edit
Autoscroll
slow
fast
+/-
esc
set tempo
stop
Capo 2

[Intro]
e|--------------------------------0-(0)----------|
B|---------1-----------3------------------3-(3)--|
G|--2-0-2------(2)-0-2----(2)-0-2-------2--------|
D|-----------------------------------------------|
A|--0-----------0----------3------------3--------|
E|-----------------------------------------------|
                                                      X2
e|-----------------------------------------------|
B|---------1----------3----------1-(1)-----------|
G|--2-0-2-----(2)-0-2----(2)-0-2-------0-2-(2)---|
D|-----------------------------------------------|
A|------------------------0------------0---------|
E|--3----------3---------------------------------|

e|----|-----|
B|-1--|-(1)-|
G|-2--|-(2)-|
D|-2--|-(2)-|
A|----|-----|
E|----|-----|

[Verse]
e|----------0-0-----------0-0--------------------------|
B|--------------3-------------3--------0-0-1-00-1-0----|
G|--2-2------------0-0-----------0-0----------------2--|
D|-------2--------------2------------0-----------------|
A|--0-0------------3-3------------------------------0--|
E|-------------------------------3-3-------------------|
    . .            . .           . .

e|---------0-0-------------------x-----------|
B|-------------3-----------------x-----------|
G|----2-----------0-0----000-0-0-x---BREATH--|
D|-------2-------------2---------x-----------|
A|----0-----------3-3------------x-----------|
E|---------------------------3-3-x-----------|
      .

e|---------0-0-----------0-0--------------------------|
B|-------------3-------------3-------0-0-1-00-1-0-----|
G|--2-2-----------0-0----------0-0----------------2-0-|
D|-------2-------------2-----------0------------------|
A|--0-0-----------3-3-------------------------0-------|
E|-----------------------------3-3--------------------|

e|---------0-0-------------------x---------|
B|-------------3-----------------x--0----x-|
G|--2-2-----------0-0----000-0-0-x----2--x-|
D|-------2-------------2---------x-------x-|
A|--0-0-----------3-3------------x-------x-|
E|---------------------------3-3-x---------|

[Chorus]
e|-------------5-5-5-3-3-0---3-3-3-3-2-2----|
B|----------5--------1-------3-------3---3--|
G|----------5--------0-------0-------2------|
D|—2/7-7-7--7--------2-------0--------------|
A|-------------------3-------2--------------|
E|---------------------------3--------------|

e|-------------------------------3-------------------------|
B|--3-1-3-1-3------1--3-1-3------3-1-3-1-3------1-------1--|
G|--2---------2p0--0--------2p0--0---------2p0--2-2-2-2----|
D|--2--------------2-------------0--------------2----------|
A|-----------------3-------------2-------------------------|
E|-------------------------------3-------------------------|

e|-----0-------------0----------3-3-3-3-3-2--2-2-2-2-2-0--|
B|--1----3-1-3-----1---3-1-3----3------------3------------|
G|--2----------2p0-0---------2--0------------2------------|
D|--2--------------2------------0-------------------------|
A|-----------------3------------2-------------------------|
E|------------------------------3-------------------------|

e|-----0-------------0----------3-3-3-3-3-2--x-2-2-2-2-0--|
B|--1----3-1-3-----1---3-1-3----3------------x------------|
G|--2----------2p0-0---------2--0------------x------------|
D|--2--------------2------------0-------------------------|
A|-----------------3------------2-------------------------|
E|------------------------------3-------------------------|

[Verse]
e|----------0-0-----------0-0--------------------------|
B|--------------3-------------3--------0-0-1-00-1-0----|
G|--2-2------------0-0-----------0-0----------------2--|
D|-------2--------------2------------0-----------------|
A|--0-0------------3-3------------------------------0--|
E|-------------------------------3-3-------------------|
    . .            . .           . .

e|---------0-0-------------------x--------------|
B|-------------3-----------------x--0---x-----0-|
G|----2-----------0-0----000-0-0-x----2-x---2---|
D|-------2-------------2---------x--------0-----|
A|----0-----------3-3------------x--------------|
E|---------------------------3-3-x--------------|
      .

e|---------0-0-----------0-0--------------------------|
B|-------------3-------------3-------0-0-1-00-1-0-----|
G|--2-2-----------0-0----------0-0----------------2-0-|
D|-------2-------------2-----------0------------------|
A|--0-0-----------3-3-------------------------0-------|
E|-----------------------------3-3--------------------|

e|---------0-0-------------------x---------|
B|-------------3-----------------x--0----x-|
G|--2-2-----------0-0----000-0-0-x----2--x-|
D|-------2-------------2---------x-------x-|
A|--0-0-----------3-3------------x-------x-|
E|---------------------------3-3-x---------|

[Chorus]
e|-------------5-5-5-3-3-0---3-3-3-3-2-2----|
B|----------5--------1-------3-------3---3--|
G|----------5--------0-------0-------2------|
D|—2/7-7-7--7--------2-------0--------------|
A|-------------------3-------2--------------|
E|---------------------------3--------------|

e|-------------------------------3-------------------------|
B|--3-1-3-1-3------1--3-1-3------3-1-3-1-3------1-------1--|
G|--2---------2p0--0--------2p0--0---------2p0--2-2-2-2----|
D|--2--------------2-------------0--------------2----------|
A|-----------------3-------------2-------------------------|
E|-------------------------------3-------------------------|

e|-----0-------------0----------3-3-3-3-3-2--2-2-2-2-2-0--|
B|--1----3-1-3-----1---3-1-3----3------------3------------|
G|--2----------2p0-0---------2--0------------2------------|
D|--2--------------2------------0-------------------------|
A|-----------------3------------2-------------------------|
E|------------------------------3-------------------------|

e|-----0-------------0----------3-3-3-3-3-2--x-2-2-2-2-0--|
B|--1----3-1-3-----1---3-1-3----3------------x------------|
G|--2----------2p0-0---------2--0------------x------------|
D|--2--------------2------------0-------------------------|
A|-----------------3------------2-------------------------|
E|------------------------------3-------------------------|

[Verse]
e|----------0-0-----------0-0--------------------------|
B|--------------3-------------3--------0-0-1-00-1-0----|
G|--2-2------------0-0-----------0-0----------------2--|
D|-------2--------------2------------0-----------------|
A|--0-0------------3-3------------------------------0--|
E|-------------------------------3-3-------------------|
    . .            . .           . .

e|---------0-0-------------------x--------------|
B|-------------3-----------------x--0---x-----0-|
G|----2-----------0-0----000-0-0-x----2-x---2---|
D|-------2-------------2---------x--------0-----|
A|----0-----------3-3------------x--------------|
E|---------------------------3-3-x--------------|
      .

e|---------0-0-----------0-0--------------------------|
B|-------------3-------------3-------0-0-1-00-1-0-----|
G|--2-2-----------0-0----------0-0----------------2-0-|
D|-------2-------------2-----------0------------------|
A|--0-0-----------3-3-------------------------0-------|
E|-----------------------------3-3--------------------|

e|---------0-0-------------------x---------|
B|-------------3-----------------x--0----x-|
G|--2-2-----------0-0----000-0-0-x----2--x-|
D|-------2-------------2---------x-------x-|
A|--0-0-----------3-3------------x-------x-|
E|---------------------------3-3-x---------|

[Chorus]
e|-------------5-5-5-3-3-0---3-3-3-3-2-2----|
B|----------5--------1-------3-------3---3--|
G|----------5--------0-------0-------2------|
D|—2/7-7-7--7--------2-------0--------------|
A|-------------------3-------2--------------|
E|---------------------------3--------------|

e|-------------------------------3-------------------------|
B|--3-1-3-1-3------1--3-1-3------3-1-3-1-3------1-------1--|
G|--2---------2p0--0--------2p0--0---------2p0--2-2-2-2----|
D|--2--------------2-------------0--------------2----------|
A|-----------------3-------------2-------------------------|
E|-------------------------------3-------------------------|

e|-----0-------------0----------3-3-3-3-3-2--2-2-2-2-2-0--|
B|--1----3-1-3-----1---3-1-3----3------------3------------|
G|--2----------2p0-0---------2--0------------2------------|
D|--2--------------2------------0-------------------------|
A|-----------------3------------2-------------------------|
E|------------------------------3-------------------------|

e|-----0-------------0----------3-3-3-3-3-2--x-2-2-2-2-0--|
B|--1----3-1-3-----1---3-1-3----3------------x------------|
G|--2----------2p0-0---------2--0------------x------------|
D|--2--------------2------------0-------------------------|
A|-----------------3------------2-------------------------|
E|------------------------------3-------------------------|

[Bridge]
e|---------------------------------------|
B|--1-------1-3---0----------0-----------|
G|--2-----2--------------------/4-2--0-2-|
D|--2---2------------------0-------------| x2
A|--0-----------0-3—(3)------------------|
E|---------------------------------------|

[Chorus]
e|-------------5-5-5-3-3-0---3-3-3-3-2-2----|
B|----------5--------1-------3-------3---3--|
G|----------5--------0-------0-------2------|
D|—2/7-7-7--7--------2-------0--------------|
A|-------------------3-------2--------------|
E|---------------------------3--------------|

e|-------------------------------3-------------------------|
B|--3-1-3-1-3------1--3-1-3------3-1-3-1-3------1-------1--|
G|--2---------2p0--0--------2p0--0---------2p0--2-2-2-2----|
D|--2--------------2-------------0--------------2----------|
A|-----------------3-------------2-------------------------|
E|-------------------------------3-------------------------|

e|-----0-------------0----------3-3-3-3-3-2--2-2-2-2-2-0--|
B|--1----3-1-3-----1---3-1-3----3------------3------------|
G|--2----------2p0-0---------2--0------------2------------|
D|--2--------------2------------0-------------------------|
A|-----------------3------------2-------------------------|
E|------------------------------3-------------------------|

e|-----0-------------0----------3-3-3-3-3-2--x-2-2-2-2-0--|
B|--1----3-1-3-----1---3-1-3----3------------x------------|
G|--2----------2p0-0---------2--0------------x------------|
D|--2--------------2------------0-------------------------|
A|-----------------3------------2-------------------------|
E|------------------------------3-------------------------|



************************************

| (n)  Ghost note
| .    Staccato
| x    Dead note
| /    Slide up
| p    Pull-off

************************************

            
            
Suggest correction
Creating personal tab
Creating personal tab
You can edit any tab online and save it as your Personal.

You can edit, replace or remove any tab part or add personal notes – all changes will be seen only by you.

Personal tabs can be accessed anytime from any device, even offline.
Learn more »
comments
print report bad tab
guest
You may want to rate the tab now too:
select rating
Wanna post a correction for this tab? Suggest correction