Oops, an error
Loading. Please wait.

Werda Ala Warda Tab

7,748 views 15 this week
no commentswrite comment
1 2 3 4 5
accurate
x 4
add to favorites
launch autoscroll
font size
0
reset
how to read this tab
guitar tuner
Autoscroll
slow
fast
+/-
esc
set tempo
stop
Help us to improve Ultimate-Guitar.com Take our survey!
×
Author
Difficulty
intermediate
Name Of Song: Werda Ala Werda
Name Of Band: Kelma
Tuning: Standard
Tabbed By: Alex Yarf ( http://www.youtube.com/user/5555ff00 )
E-mail: alexyarf@live.fr


Intro :

E --7-5-7-5--------5-5-5-7-5-----------/--------------7-7-6----------|
B -7--------8-7-5-7----------8-7-5-7-5-/-5-5-7-8-8-7-8-----8-7-5-5-7-|
G -------------------------------------/-----------------------------|
D -------------------------------------/-----------------------------|
A -------------------------------------/-----------------------------|
E -------------------------------------/-----------------------------|

( you can play it as Arpegia or also with a Rythmic )

Chords : ( Si , Mi , Sol , Fa# )

E ---------2----0----3----2-------|
B ---------3----0----0----2-------|
G ---------4----0----0----3-------|
D ---------4----2----0----4-------|
A ---------2----2----2----4-------|
E ---------2----0----3----2-------|

-----------------------------------------------

Enjoy!

P;S : The Solo will be Added as soon as Possible ;)
  For More explainings visit : https://www.youtube.com/watch?v=laOVEzi8yEk
Suggest correction
comments
print report bad tab
guest
You may want to rate the tab now too:
select rating
Please do not post tabs as comments. Select "correction" instead!