Oops, an error
Loading. Please wait.

Morning After Coffee tab

40 views 1 this week
1 commentread comment
1 2 3 4 5
3 more votes to show rating
add to favorites
×
Save as Personal and add changes to this tab that will be seen only by you. Learn more ›
×
You can save this tab as Personal to edit and correct it or add notes. All changes will be seen only by you. Learn more »
launch autoscroll
font size
0
reset
how to read this tab
guitar tuner
edit
Autoscroll
slow
fast
+/-
esc
set tempo
stop
About this tab version
LINK: https://www.youtube.com/watch?v=OGqykMgi8g4 The tab was transcribed from cello to guitar by ear, so it's probably not perfect but it's at least 95% accurate. This tab is about an octave higher than the original song in most parts, because in standard tuning it's impossible to go as low as a cello. Enjoy :). Was this info helpful? Yes No
[Verse 1]
(0:00 - 0:44)
e|------------------------------------|
B|------------------------------------|
G|-2-----2-----2-----2-----2-----2----|
D|----0-----0-----0-----0-----0-----0-|
A|----3-----3-----3-----3-----3-----3-|
E|-3-----3-----3-----3-----3-----3----|

[Chorus 1]
(0:45 - 1:08)
e|-------------------------|
B|-------------------------|
G|-------------------------|
D|-----------------------0-|
A|-1-0---1-0---1-0---1-0-0-|
E|-----3-----3-----3-------|

[Verse 2]
(1:09 - 1:31)
e|---------------------|
B|---------------------|
G|----2-----2-----2----|
D|-0-----0-----0-----0-|
A|-3-----3-----3-------|
E|----3-----3-----3----|

[Chorus 2]
(1:32 - 1:56)
e|-------------------------|
B|-------------------------|
G|-----------------------2-|
D|-----------------------0-|
A|-1-0---1-0---1-0---1-0---|
E|-----3-----3-----3-------|

[Verse 3]
(1:57 - 2:20)
e|---------------------|
B|---------------------|
G|----2-----2-----2----|
D|-0-----0-----0-----0-|
A|-3-----3-----3-----3-|
E|----3-----3-----3----|

[Chorus 3]
(2:21 - 2:44)
e|-------------------------|
B|-------------------------|
G|-------------------------|
D|-------------------------|
A|-1-0---1-0---1-0---1-0---|
E|-----3-----3-----3-----3-|

[Bridge]
{2:45 - 3:08)
e|--------------------------------------------------------------------------------------------------------|
B|--------------------------------------------------------------------------------------------------------|
G|--------------------------------------------------------------------------------------------------------|
D|-----3-------2-------0-----0------3-------2-------0-----0------3-------2-------0-----0------3-------2---|
A|-1-1---1-0-0---0--------------1-1---1-0-0---0--------------1-1---1-0-0---0--------------1-1---1-0-0---0-|
E|-----------------3-3---3-3--------------------3-3---3-3--------------------3-3---3-3--------------------|

[Outro]
(3:09 - 3:40)
e|------------------------|
B|------------------------|
G|-2-----2-----2-----2----|
D|----0-----0-----0-----0-|
A|----3-----3-----3-----3-|
E|-3-----3-----3-----3----|
Suggest correction
Creating personal tab
Creating personal tab
You can edit any tab online and save it as your Personal.

You can edit, replace or remove any tab part or add personal notes – all changes will be seen only by you.

Personal tabs can be accessed anytime from any device, even offline.
Learn more »
Give kudos to tab author, rate the tab!
1 2 3 4 5
comments
print report bad tab
1 comment total.
0 reply
holdupforwhat 1,992 Jan 27, 2017 03:28 PM

***if you want your guitar to sound like a cello, lightly palm mute the strings throughout the song***

guest
You may want to rate the tab now too:
select rating
Wanna post a correction for this tab? Suggest correction