Oops, an error
Loading. Please wait.

Morning Dew Live tab

37 views 1 this week
no commentswrite comment
1 2 3 4 5
3 more votes to show rating
add to favorites
×
Save as Personal and add changes to this tab that will be seen only by you. Learn more ›
×
You can save this tab as Personal to edit and correct it or add notes. All changes will be seen only by you. Learn more »
launch autoscroll
font size
0
reset
how to read this tab
guitar tuner
edit
Autoscroll
slow
fast
+/-
esc
set tempo
stop
About this tab version
The link to her performance is right here: https://www.youtube.com/watch?v=uUS-zA2eQ44. Sorry for the missing lyrics in a line or two, it's difficult to understand what she's singing and no official lyrics have been released yet. Strum gently in the verses/intro and more strongly in the chorus to sound like Kelsey. Let me know if I missed anything or made any mistakes. Enjoy :). Was this info helpful? Yes No
[Intro]

   Em            Am
e|-0-------------0---------|
B|-0-------------1---------|
G|-0-(strum)-----2-(strum)-|
D|-2-------------2---------|
A|-2-------------0---------|
E|-0-------------x---------|

[Verse 1]

   Em        Am        Em        Am
e|-0---------0---------0---------0---------|
B|-0---------1---------0---------1---------|
G|-0-(strum)-2-(strum)-0-(strum)-2-(strum)-|
D|-2---------2---------2---------2---------|
A|-2---------0---------2---------0---------|
E|-0---------x---------0---------x---------|

Em
Winds are picking up
    Am
The cold has come around a bit
Em
Into the cracks of old
       Am
Wooden cottages within

[Verse 2]

   Em        Am        Em        Am
e|-0---------0---------0---------0---------|
B|-0---------1---------0---------1---------|
G|-0-(strum)-2-(strum)-0-(strum)-2-(strum)-|
D|-2---------2---------2---------2---------|
A|-2---------0---------2---------0---------|
E|-0---------x---------0---------x---------|

    Em
The callouses of your heart
    Am
Are [?] and [?]
Em
Reachin' out my hand
Am
Darkness of a sorrow

[Chorus]

   G         Am        G         Am
e|-3---------0---------3---------0---------|
B|-0---------1---------0---------1---------|
G|-0-(strum)-2-(strum)-0-(strum)-2-(strum)-|
D|-0---------2---------0---------2---------|
A|-2---------0---------2---------0---------|
E|-3---------x---------3---------x---------|
         G
Bring me home
        Am
Back to you
             G
Wash off the old
           Am
Put on the new

   G         Am        G         Am
e|-3---------0---------3---------0--------------------------------------------------------------------|
B|-0---------1---------0---------1--------------------------------------------------------------------|
G|-0-(strum)-2-(strum)-0-(strum)-2-(strum once and let ring, then quickly strum twice before verse 3)-|
D|-0---------2---------0---------2--------------------------------------------------------------------|
A|-2---------0---------2---------0--------------------------------------------------------------------|
E|-3---------x---------3---------x--------------------------------------------------------------------|

        G
Morning dew
           Am
My morning dew
        G
Morning dew
             Am
I'm mourning you

[Verse 3]

   Em        Am        Em        Am
e|-0---------0---------0---------0---------|
B|-0---------1---------0---------1---------|
G|-0-(strum)-2-(strum)-0-(strum)-2-(strum)-|
D|-2---------2---------2---------2---------|
A|-2---------0---------2---------0---------|
E|-0---------x---------0---------x---------|

Em
Lost into the field
    Am
And all the love and all the lies
Em
Time I left to heal
              Am
Caught in the undertows of passion

[Verse 4]

   Em        Am        Em        Am
e|-0---------0---------0---------0---------|
B|-0---------1---------0---------1---------|
G|-0-(strum)-2-(strum)-0-(strum)-2-(strum)-|
D|-2---------2---------2---------2---------|
A|-2---------0---------2---------0---------|
E|-0---------x---------0---------x---------|

    Em
Temptations running strong
         Am
Into the veins of all that matters
Em
Drown in my blood
               Am
Prayin' you'll save me again

[Chorus]

   G         Am        G         Am
e|-3---------0---------3---------0---------|
B|-0---------1---------0---------1---------|
G|-0-(strum)-2-(strum)-0-(strum)-2-(strum)-|
D|-0---------2---------0---------2---------|
A|-2---------0---------2---------0---------|
E|-3---------x---------3---------x---------|
         G
Bring me home
        Am
Back to you
             G
Wash off the old
           Am
Put on the new

   G         Am        G         Am
e|-3---------0---------3---------0---------|
B|-0---------1---------0---------1---------|
G|-0-(strum)-2-(strum)-0-(strum)-2-(strum)-|
D|-0---------2---------0---------2---------|
A|-2---------0---------2---------0---------|
E|-3---------x---------3---------x---------|

        G
Morning dew
           Am
My morning dew
        G
Morning dew
             Am
I'm mourning you

[Bridge]

   G                   Am                  G                   Am
e|-------------------|-------------------|-------------------|-------------------|
B|-------------------|-------------------|-------------------|-------------------|
G|-------------------|-------------------|-------------------|-------------------|
D|-------------------|-------------------|-------------------|-------------------|
A|-------------------|-------------------|-------------------|-------------------|
E|-3-3-3-3-3-3-3-3/5-|-5-5-5-5-5-5-5-5\3-|-3-3-3-3-3-3-3-3/5-|-5-5-5-5-5-5-5-5\3-|
   G                   Am                  G                   Am
e|-------------------|-------------------|-------------------|-------------------|
B|-------------------|-------------------|-------------------|-------------------|
G|-------------------|-------------------|-------------------|-------------------|
D|-------------------|-------------------|-------------------|-------------------|
A|-------------------|-------------------|-------------------|-------------------|
E|-3-3-3-3-3-3-3-3/5-|-5-5-5-5-5-5-5-5\3-|-3-3-3-3-3-3-3-3/5-|-5-5-5-5-5-5-5-5\3-|


   G                   Am                  G                   Am
e|-------------------|-------------------|-------------------|-------------------|
B|-------------------|-------------------|-------------------|-------------------|
G|-------------------|-------------------|-------------------|-------------------|
D|-------------------|-------------------|-------------------|-------------------|
A|-------------------|-------------------|-------------------|-------------------|
E|-3-3-3-3-3-3-3-3/5-|-5-5-5-5-5-5-5-5\3-|-3-3-3-3-3-3-3-3/5-|-5-5-5-5-5-5-5-5\3-|

         G
Bring me home
        Am
Back to you
             G
Wash off the old
           Am
Put on the new

   G                   Am                  G                   Am
e|-------------------|-------------------|-------------------|-------------------|
B|-------------------|-------------------|-------------------|-------------------|
G|-------------------|-------------------|-------------------|-------------------|
D|-------------------|-------------------|-------------------|-------------------|
A|-------------------|-------------------|-------------------|-------------------|
E|-3-3-3-3-3-3-3-3/5-|-5-5-5-5-5-5-5-5\3-|-3-3-3-3-3-3-3-3/5-|-5-5-5-5-5-5-5-5\3-|

        G
Morning dew (bring me home)
           Am
My morning dew (back to you)
        G
Morning dew (wash off the old)
             Am
I'm mourning you (put on the new)

   G                   Am                  G                   Am
e|-------------------|-------------------|-------------------|-------------------|
B|-------------------|-------------------|-------------------|-------------------|
G|-------------------|-------------------|-------------------|-------------------|
D|-------------------|-------------------|-------------------|-------------------|
A|-------------------|-------------------|-------------------|-------------------|
E|-3-3-3-3-3-3-3-3/5-|-5-5-5-5-5-5-5-5\3-|-3-3-3-3-3-3-3-3/5-|-5-5-5-5-5-5-5-5\3-|

        G
Morning dew (bring me home)
           Am
My morning dew (back to you)
        G
Morning dew (wash off the old)
             Am
I'm mourning you (put on the new)

   G                   Am                  G                   Am
e|-------------------|-------------------|-------------------|-------------------|
B|-------------------|-------------------|-------------------|-------------------|
G|-------------------|-------------------|-------------------|-------------------|
D|-------------------|-------------------|-------------------|-------------------|
A|-------------------|-------------------|-------------------|-------------------|
E|-3-3-3-3-3-3-3-3/5-|-5-5-5-5-5-5-5-5\3-|-3-3-3-3-3-3-3-3/5-|-5-5-5-5-5-5-5-5\3-|

        G
Morning dew (bring me home)
           Am
My morning dew (back to you)
        G
Morning dew (wash off the old)
             Am
I'm mourning you (put on the new)

[Outro]

N.C.
Morning dew...


************************************

| x   Dead note
| /   Slide up
| \   Slide down

************************************

            
            
Suggest correction
Creating personal tab
Creating personal tab
You can edit any tab online and save it as your Personal.

You can edit, replace or remove any tab part or add personal notes – all changes will be seen only by you.

Personal tabs can be accessed anytime from any device, even offline.
Learn more »
Give kudos to tab author, rate the tab!
1 2 3 4 5
comments
print report bad tab
guest
You may want to rate the tab now too:
select rating
Wanna post a correction for this tab? Suggest correction