Oops, an error
Loading. Please wait.

As You Wake Up Chords

220 views 15 this week
1 commentread comment
1 2 3 4 5
3 more votes to show rating
add to favorites
launch autoscroll
font size
0
reset
transpose
0
reset
simplify chords
display chords
guitar tuner
Autoscroll
slow
fast
+/-
esc
set tempo
stop
Help us to improve Ultimate-Guitar.com Take our survey!
×
Author
Capo
1st fret
WEBSITES
Soundcloud: https://soundcloud.com/kelvinjonesmusic
Bandcamp: http://kelvinjones.bandcamp.com/
Facebook: https://www.facebook.com/kelvinjonesmusic
Twitter: https://twitter.com/kelvinjmusic

A7sus4:   002233

[Intro]
   Em                      C         G
e|---------------------------------|---------------------------------| 
B|---------------------------------|---------------------------------|
G|---0-----0-----0-----0-------1---|---0-----0-----0-----0-----------|
D|---------------------------------|---------------------------------|
A|-----------------------2-3-------|---------------------------------|
E|-0-----0-----0-----0-------------|-3-----3-----3-----3-----5---7---|

   Em                      C         G
e|---------------------------------|---------------------------------| 
B|---------------------------------|---------------------------------|
G|---0-----0-----0-----0-------1---|---0-----0-----0-----------------|
D|---------------------------------|---------------------------------|
A|-----------------------2-3-------|---------------------------------|
E|-0-----0-----0-----0-------------|-3-----3-----3-------------------|

(Play through the whole verse)


[Verse]
 Em                         C       G
I guess I never showed you what you

mean to me
 Em                         C       G
When you're standing by my side 

I feel so free
 Em                    C       G        
Is this the first time or does everybody know?
Em                    C        G
Even if we're never more

promise you will never go


[Pre-Chorus]
 D                           C
I can see you don't believe what I say
 D                     C
But I can tell you now I see it everyday


[Chorus]
 Em                          C
I was thinking maybe I could lay beside you
 G              D
Each and every morning
 Em                          C
I was hoping maybe I could hold your hand
 G                           D
Be the first thing that you see

As you wake up


   Em                      C         G
e|---------------------------------|---------------------------------| 
B|---------------------------------|---------------------------------|
G|---0-----0-----0-----0-------1---|---0-----0-----0-----------------|
D|---------------------------------|---------------------------------|
A|-----------------------2-3-------|---------------------------------|
E|-0-----0-----0-----0-------------|-3-----3-----3-------------------|


[Verse]
 Em                         C       G
I remember when I first thought 

that we could be
 Em                     C       G
You smiled a little more 

when you looked at me
 Em                            C       G
I could travel for miles and miles up

in your eyes
 Em                         C     
And I won't stop 
         G
with the dying of the light


[Pre-Chorus]
 D                           C
I can see you don't believe what I say
 D                     C
But I can tell you now I see it everyday


[Chorus]
 Em                          C
I was thinking maybe I could lay beside you (lay beside you)
 G              D
Each and every morning
 Em                          C
I was hoping maybe I could hold your hand (hold your hand)
 G                           D
Be the first thing that you see

As you wake up

Em    D    G     A7sus4 C
Ooooh Oooh Ooooh Ooooh Ooooo

Em    D    G     A7sus4 C
Ooooh Oooh Ooooh Ooooh Ooooo


[Chorus]
 Em                          C
I was thinking maybe I could lay beside you
 G              D
Each and every morning
 Em                          C
I was hoping maybe I could hold your hand
 G                           D
Be the first thing that you see

As you wake up


[Chorus]
 Em                          C
I was thinking maybe I could lay beside you (lay beside you)
 G              D
Each and every morning (every morning now)
 Em                          C
I was hoping maybe I could hold your hand (hold your hand)
 G                           D
Be the first thing that you see

As you wake up


[Outro]
   Em                      C         G
e|---------------------------------|---------------------------------| 
B|---------------------------------|---------------------------------|
G|---0-----0-----0-----0-------1---|---0-----0-----0-----------------|
D|---------------------------------|---------------------------------|
A|-----------------------2-3-------|---------------------------------|
E|-0-----0-----0-----0-------------|-3-----3-----3-------------------|
Suggest correction
Give kudos to tab author, rate the tab!
1 2 3 4 5
comments
print report bad tab
1 comment total.
0 reply
jan.dittli 36 Oct 30, 2016 11:55 AM

Hi guys

I'm not quite sure about the Asus2 after the second chorus. Glad to hear your opinion or suggestion for improvement! :)

guest
You may want to rate the tab now too:
select rating
Wanna post a correction for this tab? Suggest correction