Oops, an error
Loading. Please wait.

Ay Amor tab

by Kema
52 views 1 this week
no commentswrite comment
1 2 3 4 5
3 more votes to show rating
add to favorites
×
Save as Personal and add changes to this tab that will be seen only by you. Learn more ›
×
You can save this tab as Personal to edit and correct it or add notes. All changes will be seen only by you. Learn more »
launch autoscroll
font size
0
reset
how to read this tab
guitar tuner
edit
Autoscroll
slow
fast
+/-
esc
set tempo
stop
olas gente! aki les dejo otra muy buena cancion de kema..
tal vez sea un poco dificil de entender
pero una vez ke lo hagan es facil de tocar..
los acordes estan correctos como siempre! jaa =)!
suerte para todos y cuidenseee :)!!**


Intro:

E||-------------------0---------
B||-1---1--3---3--1-----3---3---
G||--2---2--2---2--2---2--2--2--
D||---3------3------3------3----


Ayer te vi pasar del brazo de otro

E||-------------------0---------
B||-1---1--3---3--1-----3---3---
G||--2---2--2---2--2---2--2--2--
D||---3------3------3------3----

y te confieso que me dolio

E||-----0-------------0----------
B||-3------3---3---1-----1---1---
G||--3----3---3--3--2---2---2-2--
D||---3------3-------3-----2-----

ayer senti que deveras te perdi

E||-------------------0---------
B||-1---1--3---3--1-----3---3---
G||--2---2--2---2--2---2--2--2--
D||---3------3------3------3----

y vivi lo que yo te hice vivir

                             C-A#-F
E||-----0-------------0----------
B||-3------3---3---1-----1---1---
G||--3----3---3--3--2---2---2-2--
D||---3------3-------3-----2-----

A#       C         A#       F
ayer senti que mi mundo se rompio
A#
y le pregunte a la noche
F
y callada se quedo
A#
lo senti como un reproche
   C
y solo pude decir


Coro:
F A#   C A#
ay amor
         F              A#        C    A#
que me lleve el que me trajo digo yo
F A#   C A#
ay amor
      F                      A#                      C
paso las noches en vela deshojando margaritas pero siempre
          A#
me dicen que no
F A#  C A#
ay amor
    A#          Am            Dm
aqui estare esperando por si vuelves
C    F-A#-C-A#
ay amor

*igual ke el primer verso:
F
saber que te perdi
          A#
ya me hace otro
F                 A#   C
que dificil aprender asi

A#       C         A#       F
ayer senti que mi mundo se rompio
A#
y le pregunte a la luna
F
y callada se quedo
A#
no tuvo respuesta alguna
   C
y solo pude decir

Coro:
F A#   C A#
ay amor
         F              A#        C    A#
que me lleve el que me trajo digo yo
F A#   C A#
ay amor
      F                      A#                      C
paso las noches en vela deshojando margaritas pero siempre
          A#
me dicen que no
F A#  C A#
ay amor
    A#          Am            Dm
aqui estare esperando por si vuelves
C    F-A#-C-A#
ay amor


Intermedio: F-A#-C-A#

F A# C A#
Ay amor..

F A# C A#
ay amor
como agua pa ese viento
como hoguera pa este frio
F A# C A#
ay amor
como lluvia en el desierto
yo te necesito

A#          Am            Dm
aqui estare esperando por si vuelves
C
ay amor

   (x2)
E||-------------------0---------
B||-1---1--3---3--1-----3---3---
G||--2---2--2---2--2---2--2--2--
D||---3------3------3------3----

       F
Ay amor..

            
            
Suggest correction
Creating personal tab
Creating personal tab
You can edit any tab online and save it as your Personal.

You can edit, replace or remove any tab part or add personal notes – all changes will be seen only by you.

Personal tabs can be accessed anytime from any device, even offline.
Learn more »
Give kudos to tab author, rate the tab!
1 2 3 4 5
comments
print report bad tab
guest
Wanna post a correction for this tab? Suggest correction