Oops, an error
Loading. Please wait.

Noizbait tab

360 views 1 this week
no commentswrite comment
1 2 3 4 5
3 more votes to show rating
add to favorites
×
Save as Personal and add changes to this tab that will be seen only by you. Learn more ›
×
You can save this tab as Personal to edit and correct it or add notes. All changes will be seen only by you. Learn more »
launch autoscroll
font size
0
reset
how to read this tab
guitar tuner
edit
Autoscroll
slow
fast
+/-
esc
set tempo
stop
Riff1:
             D                     A
|------10-12-12----12-10----10-10-10-10-10-9----|
|-8/10----------10-------10---------------------|
|-----------------------------------------------|
|-----------------------------------------------|
|-----------------------------------------------|
|-----------------------------------------------|

             Bm                     G
|------10-12-12-14-12-10------10-12-15-12-15-14-|
|-8/10-------------------8/10-------------------|
|-----------------------------------------------|
|-----------------------------------------------|
|-----------------------------------------------|
|-----------------------------------------------|
*2


D           Bm          G           A7
 Aquest silenci vol saber on ets en tot moment
D             Bm            G      A
 Crida el teu nom, mil cops en qualsevol moment
Bm                G            A            D
 El full del calendari, a la cara m'ha plantat
Bm                     G               A
 Totes les nits que he passat desvetllat, desde que tu has marxat


Riff1


D           Bm        G             A
 Alliberem-nos em vas dir amb llàgrimes, un dia
D              Bm         G           A
 Segur que arriba, la nostra oportunitat, un dia
Bm               G                   A              D
 Desde aleshores vaig remant, perdut per les meves mans
Bm              G               A              D
 Envoltat de tempestes tot esperant el teu senyal


Bm             E
 Busquem a les nits
Bm                      E
 Que no hi ha estels al cel
Bm              E          G       A
 Si em guies aniré fins la vora la mar


D             A
 I fins l'infinit
D                G
 Tot seguint les llums
D             A         G   A
 Mil i un intents arribaré, compta-hi

D           A
 I si tu hi ets
D                 G
 De segur que et trobo
D                A               G   A
 I amb els ulls clucs a prop sentir-te, compta-hi


    D        A            Bm   G
|------------------------------7-7-7--------|
|----------------------8/10-10-------10-8-7-|
|-9/11-11-12-12-11-8-7----------------------|
|-------------------------------------------|
|-------------------------------------------|
|-------------------------------------------|
*2


D      A     Bm          G
 I si tu em busques, amb llum de fanal
D      A       G
 I si tu em guies, fins vora la mar


D             A
 I fins l'infinit
D                G
 Tot seguint les llums
D             A          G   A
 Mil i un intents arribaré, compta-hi
D           A
 I si tu hi ets
D                 G
 De segur que et trobo
D                 A               G   A      D
 I amb els ulls clucs aprop sentir-te, compta-hi

            
            
Suggest correction
Creating personal tab
Creating personal tab
You can edit any tab online and save it as your Personal.

You can edit, replace or remove any tab part or add personal notes – all changes will be seen only by you.

Personal tabs can be accessed anytime from any device, even offline.
Learn more »
Give kudos to tab author, rate the tab!
1 2 3 4 5
comments
print report bad tab
guest
Wanna post a correction for this tab? Suggest correction