Oops, an error
Loading. Please wait.

Scratch Tab

4,473 views 6 this week
1 commentread comment
1 2 3 4 5
excellent!
x 4
add to favorites
launch autoscroll
font size
0
reset
how to read this tab
guitar tuner
Tab Pro tools
  • play this tab
  • loop segment
  • change instrument
  • show fretboard
  • metronome
×
Best way to learn
"Scratch"
Autoscroll
slow
fast
+/-
esc
set tempo
stop
Difficulty
intermediate
Intro:
G/E?         G/F#        G           G/D
------------------------|------------------------|------------------------|--|
---------3---------3----|-------3-----------3----|-------3-----------3----|--|
------0--------0------0-|----0-----0-----0-----0-|----------0-----0-----0-|--|
---0--------------------|-------------0----------|----0-------------------|--|
------------------------|------------------------|------------------------|--|
-0-----------2----------|-3----------------------|-0-----------2----------|--|


------------------------|
-------3-----------3----|
----0-----0-----------0-|
------------------------|
------------------------|
-3----------------------|

Verses:  In the 2nd verse change below measure to  3-3 instead of 3-0 on
the bass notes (hope that makes sense).

------------------------|------------------------|-------------------------|
-------3-----------3----|-------3-----------3----|-------3-----------3-----|
----0-----0-----0-----0-|----0-----0-----0-----0-|----0-----0-----0-----0--|
------------------------|-------------0----------|-------------------------|
------------------------|------------------------|-------------------------|
-0-----------2----------|-3----------------------|-0-----------2-----------|

                         Am7           ?           ?       C
------------------------|------------------------|---------------------------|
-------3-----------3----|-------1-----------3----|-----3-------1-------1-----|
----0-----0-----0-----0-|----------------2-----2-|---0---0---0---0---0---0---|
-------------0----------|----2-----2-------------|---------------------------|
------------------------|-0----------------------|---------3-------3---------|
-3----------------------|-------------2----------|-0-------------------------|


------------------------|------------------------|--------------------------|
-------3-----------3----|-------3-----------3----|-------3-----------3------|
----------0-----0-----0-|----0-----0-----0-----0-|----0-----0-----0-----0---|
----0-------------------|-------------0----------|--------------------------|
------------------------|------------------------|--------------------------|
-0-----------2----------|-3----------------------|-0-----------2------------|


------------------------|-----------------------|---------------------------|
-------3-----------3----|-------1----------3----|-------3-----------1-------|
----0-----0-----0-----0-|---------------2-----2-|----0-----0-----0-----0----|
------------------------|----2----2-------------|---------------------------|
------------------------|-0---------------------|-------------3-------------|
-3-----------3----------|------------2----------|-0-------------------------|

                                       (or pause)
------------------------|-------------------------|-------------------------|
-------1-----------3----|-------3------------1----|-------1-----------3-----|
----------------2-----2-|----0-----0------0-----0-|----------------2-----2--|
----2-----2-------------|-------------------------|----2-----2--------------|
-0----------------------|--------------3----------|-0-----------------------|
-------------2----------|-0-----------------------|-------------2-----------|

                                     (quick) (pause)
-------------------------|------------------|-------------------------------|
-----3-------1-------1---|-----3-------3----|--------3--------3-------------|
---0---0---0---0---0---0-|---0---0---0------|------0---0----0---0-----------|
-------------------------|------------------|-------------------------------|
---------3-------3-------|------------------|-------------------------------|
-0-----------------------|-0-------2------3-|-------------3-----------------|


Bridge or extra verse? Repeat 4 times

-----------------|-----------------|
-----3-------3---|-----3-------3---|
---0---0---0---0-|---0---0---0---0-|
-----------------|-----------------|
-----------------|-----------------|
-0-------2-------|-3-------3-------|

Repeat once
C                  D
---------0-------|---------2-------|
-------1---------|-----3-----3-----|
-----0-------0---|---2---2-----2---|
---2-------2---2-|-0-------------0-|
-3---------------|-----------------|
-----------------|-----------------|


Refrain: Repeat twice after 1st verse and 4 times after 2nd verse

G                 C       D         G                 C       D
-----------------|-----------------|-----------------|-----------------|
-----3-------3---|-----1-------3---|-----3-------3---|-----1-------3---|
-------0-------0-|-------2---2---2-|-------0-------0-|-------2---2---2-|
---0-------0-----|---0-----0-------|---0-------0-----|---0-----0-------|
---------2-------|-3---------------|---------2-------|-3---------------|
-3---------------|-----------------|-3---------------|-----------------|

transition between refrain and verses
-----------------|
-----3-----------|
-------0---------|
---0------0---0--|
-----------------|
-3--------2---3--|
comments
print report bad tab
1 comment total.
0 reply
Loulou800 wrote on April 27 2012, 09:19 pm

Nice. :] This song is soo sad but I love it.
Heard it from Grey's Anatomy! :)

I want to post or [tab]
guest
You may want to rate the tab now too:
select rating
Please do not post tabs as comments. Select "correction" instead!