Oops, an error
Loading. Please wait.

I tab

version 2
version 2

Whole song

523 views 15 this week
no commentswrite comment
1 2 3 4 5
2 more votes to show rating
add to favorites
×
Save as Personal and add changes to this tab that will be seen only by you. Learn more ›
×
You can save this tab as Personal to edit and correct it or add notes. All changes will be seen only by you. Learn more »
launch autoscroll
font size
0
reset
how to read this tab
guitar tuner
edit
Autoscroll
slow
fast
+/-
esc
set tempo
stop
Author
Difficulty
Artist: Kendrick Lamar
Song: I (Single version) 

[Intro]
  Eb                     Ab 
e|----------------------|-8--8-8--8--8-8--8-8-8--8--8--8--|
B|-8--8-8--8----8--8----|-9--9-9--11p9-9--9-9-9--9--9--9--|
G|-8--8-8--10p8-8--8----|-8--8-8--8--8-8--8-8-8--10-10-8--|
D|-8--8-8--8----8--8-10-|---------------------------------|
A|----------------------|---------------------------------|
E|----------------------|---------------------------------|

  As I look around me
e|-13(15)--13(15)--13(15)(13)-11h13-11~~~--|
B|-----------------------------------------|
G|-----------------------------------------|
D|-----------------------------------------|
A|-----------------------------------------|
E|-----------------------------------------|

[Chorus]
  I love myself (The world is a ghetto with big guns and picket signs)
e|--------8-8--|-------------8-----------------|-------------------------|
B|--------8-8--|-11(13)-11-8---11-8------------|-------------------------|
G|-10(12)------|--------------------11-10-8----|----8-10-8h10p8----8-----|
D|-------------|----------------------------10-|-10--------------10-10---|
A|-------------|-------------------------------|-------------------------|
E|-------------|-------------------------------|-------------------------|

 (But it can do what it want whenever it want, I don't mind)
e|---------------------------------------------------------|
B|-11(13)~--11-8-----------8-------------------------------|
G|---------------10(12)10---10----8-10-8h10p8---8----------|
D|----------------------------10--------------10-10--------|
A|---------------------------------------------------------|
E|---------------------------------------------------------|

  (He said I gotta get up, life is more than suicide)
e|----------------------------------------------------|
B|-11(13)~-(13)(11)-----------------------------------|
G|------------------8h10p8-8~----8-10--8h10p8---8-----|
D|----------------------------10--------------10-10---|
A|----------------------------------------------------|
E|----------------------------------------------------|

  (One day at a time, sun gonna shine)
e|------------------------------------------------------------|
B|-11(13)~-(13)(11)(13)(11)----8------------------------------|
G|--------------------------10---10(12)10----8-10--10/12------|
D|----------------------------------------10-------------10---|
A|------------------------------------------------------------|
E|------------------------------------------------------------|

[Verse 1]
Cm7              
Everybody lookin' at you crazy (crazy!)
Fm7
What you gonna do? (what you gonna do?)
Cm7
Lift up your head and keep moving (keep moving)
Fm7
Or let the paranoia haunt you (haunt you)?
Cm7
Peace to fashion police, I wear my heart
Fm7
On my sleeve, let the runway start
Cm7
You know the miserable do love company
Fm7
What do you want from me and my scars?

[Bridge]
                Ab                        Bb
 Everybody lack confident, Everybody lack confident
e|-------------------------|--------------------------|
B|--------------8--8---8---|--------------8--8--------|
G|--------------5--5-------|--------------7--7--------|
D|--------------6--6-------|--------------8--8--------|
A|-------------------------|--------------------------|
E|-------------------------|--------------------------|

  Bb                                         Ab
  How many times my potential was anonymous? How many times the city making me promises?
e|------------------------------------------|---------------------------------|
B|------------------------------------------|-8--8----------------------------|
G|------------------------------------------|-5--5----------------------------|
D|------------------------------------------|-6--6----------------------------|
A|------------------------------------------|---------------------------------|
E|------------------------------------------|---------------------------------|

  G
    So I promise this  I love myself
e|-------------------------------------|
B|-------------------------------------|
G|-----------------------8-5-----------|
D|-5-8-----------------5---------------|
A|-------------------------------------|
E|-------------------------------------|

[Chorus]
 (The world is a ghetto with big guns and picket signs)
e|-------------8-----------------|-------------------------|
B|-11(13)-11-8---11-8------------|-------------------------|
G|--------------------11-10-8----|----8-10-8h10p8----8-----|
D|----------------------------10-|-10--------------10-10---|
A|-------------------------------|-------------------------|
E|-------------------------------|-------------------------|

 (But it can do what it want whenever it want, I don't mind)
e|---------------------------------------------------------|
B|-11(13)~--11-8-----------8-------------------------------|
G|---------------10(12)10---10----8-10-8h10p8---8----------|
D|----------------------------10--------------10-10--------|
A|---------------------------------------------------------|
E|---------------------------------------------------------|

  (He said I gotta get up, life is more than suicide)
e|----------------------------------------------------|
B|-11(13)~-(13)(11)-----------------------------------|
G|------------------8h10p8-8~----8-10--8h10p8---8-----|
D|----------------------------10--------------10-10---|
A|----------------------------------------------------|
E|----------------------------------------------------|
 
  (One day at a time, sun gonna shine)
e|------------------------------------------------------------|
B|-11(13)~-(13)(11)(13)(11)----8------------------------------|
G|--------------------------10---10(12)10----8-10--10/12------|
D|----------------------------------------10-------------10---|
A|------------------------------------------------------------|
E|------------------------------------------------------------|


************************************

| p    Pull-off
| (n)  Ghost note
| h    Hammer-on
| ~    Vibrato
| /    Slide up

************************************

            
            
Suggest correction
Creating personal tab
Creating personal tab
You can edit any tab online and save it as your Personal.

You can edit, replace or remove any tab part or add personal notes – all changes will be seen only by you.

Personal tabs can be accessed anytime from any device, even offline.
Learn more »
Give kudos to tab author, rate the tab!
1 2 3 4 5
comments
print report bad tab
guest
You may want to rate the tab now too:
select rating
Wanna post a correction for this tab? Suggest correction