Oops, an error
Loading. Please wait.

Untitled 04 intro tab

version 1
version 1

Intro

Interactive

2,578 views 9 this week
no commentswrite comment
1 2 3 4 5
x 6
add to favorites
×
Save as Personal and add changes to this tab that will be seen only by you. Learn more ›
×
You can save this tab as Personal to edit and correct it or add notes. All changes will be seen only by you. Learn more »
launch autoscroll
font size
0
reset
how to read this tab
guitar tuner
edit
Autoscroll
slow
fast
+/-
esc
set tempo
stop
Untitled 04
Kendrick Lamar

This is the main bass riff reworked for guitar. Also pops up at the end of Untitled 07 on the album. 
Sweet little jam.


[Riff]

e|---------------------------------------------------------------------------|
B|---------------------------------------------------------------------------|
G|---------------------------------------------------------------------------|
D|--7-----7--------------------------7-----7---------------------------------|
A|--7---7-6--------------------------7---7-6---------------------------------|
E|--5-----7-----7---7---7---7---5-7--5-----7-----7---7---7---7---5-7---------|

[Variations]

e|---------------------------------------------------------------------------|
B|---------------------------------------------------------------------------|
G|---------------------------------------------------------------------------|
D|--7-----7--------------------------5/6/7---7---------------------7-9-------|
A|--7---7-6--------------------------5/6/7---6-------------------------------|
E|--5-----7-7---7---7---7---7---5-7--------8-7-7---7---7---7---7---5-7-------|


e|---------------------------------------------------------------------------|
B|---------------------------------------------------------------------------|
G|---------------------------------------------------------------------------|
D|--7-----7--------------------------7-----7---------------------------------|
A|--7-----6--------------------------7---7-6---------------------------------|
E|--5---0-7-7---7---7---7---7-x-5-7--5-----7-7---7---7---7---7---5-7---------|

(Rinse and repeat)


***********************************
| /   Slide up
**********************************

            
            
Suggest correction
Creating personal tab
Creating personal tab
You can edit any tab online and save it as your Personal.

You can edit, replace or remove any tab part or add personal notes – all changes will be seen only by you.

Personal tabs can be accessed anytime from any device, even offline.
Learn more »
comments
print report bad tab
guest
You may want to rate the tab now too:
select rating
Wanna post a correction for this tab? Suggest correction